  0
SECTION
  2
HEADER
  9
$ACADVER
  1
AC1015
  9
$ACADMAINTVER
 70
     6
  9
$DWGCODEPAGE
  3
ANSI_1252
  9
$INSBASE
 10
0.0
 20
0.0
 30
0.0
  9
$EXTMIN
 10
2.042022758678101
 20
3.540283246827641
 30
-0.0015258207003583
  9
$EXTMAX
 10
7.248626743034265
 20
5.82688906465993
 30
0.0000000349246037
  9
$LIMMIN
 10
0.0
 20
0.0
  9
$LIMMAX
 10
12.0
 20
8.5
  9
$ORTHOMODE
 70
     0
  9
$REGENMODE
 70
     1
  9
$FILLMODE
 70
     1
  9
$QTEXTMODE
 70
     0
  9
$MIRRTEXT
 70
     0
  9
$LTSCALE
 40
1.5
  9
$ATTMODE
 70
     1
  9
$TEXTSIZE
 40
0.15
  9
$TRACEWID
 40
0.05
  9
$TEXTSTYLE
  7
SIMPLEX
  9
$CLAYER
  8
TEXT
  9
$CELTYPE
  6
ByLayer
  9
$CECOLOR
 62
   256
  9
$CELTSCALE
 40
1.0
  9
$DISPSILH
 70
     0
  9
$DIMSCALE
 40
1.0
  9
$DIMASZ
 40
0.18
  9
$DIMEXO
 40
0.125
  9
$DIMDLI
 40
0.5
  9
$DIMRND
 40
0.001
  9
$DIMDLE
 40
0.0
  9
$DIMEXE
 40
0.18
  9
$DIMTP
 40
0.0
  9
$DIMTM
 40
0.0
  9
$DIMTXT
 40
0.15
  9
$DIMCEN
 40
0.0625
  9
$DIMTSZ
 40
0.0
  9
$DIMTOL
 70
     0
  9
$DIMLIM
 70
     0
  9
$DIMTIH
 70
     1
  9
$DIMTOH
 70
     1
  9
$DIMSE1
 70
     0
  9
$DIMSE2
 70
     0
  9
$DIMTAD
 70
     0
  9
$DIMZIN
 70
     4
  9
$DIMBLK
  1

  9
$DIMASO
 70
     1
  9
$DIMSHO
 70
     0
  9
$DIMPOST
  1

  9
$DIMAPOST
  1

  9
$DIMALT
 70
     0
  9
$DIMALTD
 70
     2
  9
$DIMALTF
 40
25.4
  9
$DIMLFAC
 40
1.0
  9
$DIMTOFL
 70
     0
  9
$DIMTVP
 40
0.0
  9
$DIMTIX
 70
     0
  9
$DIMSOXD
 70
     0
  9
$DIMSAH
 70
     0
  9
$DIMBLK1
  1

  9
$DIMBLK2
  1

  9
$DIMSTYLE
  2
Standard
  9
$DIMCLRD
 70
     0
  9
$DIMCLRE
 70
     0
  9
$DIMCLRT
 70
     0
  9
$DIMTFAC
 40
1.0
  9
$DIMGAP
 40
0.09
  9
$DIMJUST
 70
     0
  9
$DIMSD1
 70
     0
  9
$DIMSD2
 70
     0
  9
$DIMTOLJ
 70
     1
  9
$DIMTZIN
 70
     4
  9
$DIMALTZ
 70
     4
  9
$DIMALTTZ
 70
     4
  9
$DIMUPT
 70
     0
  9
$DIMDEC
 70
     2
  9
$DIMTDEC
 70
     2
  9
$DIMALTU
 70
     2
  9
$DIMALTTD
 70
     2
  9
$DIMTXSTY
  7
STANDARD
  9
$DIMAUNIT
 70
     0
  9
$DIMADEC
 70
     0
  9
$DIMALTRND
 40
0.0
  9
$DIMAZIN
 70
     0
  9
$DIMDSEP
 70
    46
  9
$DIMATFIT
 70
     3
  9
$DIMFRAC
 70
     0
  9
$DIMLDRBLK
  1

  9
$DIMLUNIT
 70
     2
  9
$DIMLWD
 70
    -2
  9
$DIMLWE
 70
    -2
  9
$DIMTMOVE
 70
     2
  9
$LUNITS
 70
     2
  9
$LUPREC
 70
     2
  9
$SKETCHINC
 40
0.1
  9
$FILLETRAD
 40
0.0
  9
$AUNITS
 70
     0
  9
$AUPREC
 70
     0
  9
$MENU
  1
acad
  9
$ELEVATION
 40
0.0
  9
$PELEVATION
 40
0.0
  9
$THICKNESS
 40
0.0
  9
$LIMCHECK
 70
     0
  9
$CHAMFERA
 40
0.0
  9
$CHAMFERB
 40
0.0
  9
$CHAMFERC
 40
0.0
  9
$CHAMFERD
 40
0.0
  9
$SKPOLY
 70
     0
  9
$TDCREATE
 40
2449427.651984606
  9
$TDUCREATE
 40
2449427.860317940
  9
$TDUPDATE
 40
2455083.464259352
  9
$TDUUPDATE
 40
2455083.672592685
  9
$TDINDWG
 40
0.0059943403
  9
$TDUSRTIMER
 40
0.0059943403
  9
$USRTIMER
 70
     1
  9
$ANGBASE
 50
0.0
  9
$ANGDIR
 70
     0
  9
$PDMODE
 70
     0
  9
$PDSIZE
 40
0.0
  9
$PLINEWID
 40
0.0
  9
$SPLFRAME
 70
     0
  9
$SPLINETYPE
 70
     6
  9
$SPLINESEGS
 70
     8
  9
$HANDSEED
  5
9B6
  9
$SURFTAB1
 70
     6
  9
$SURFTAB2
 70
     6
  9
$SURFTYPE
 70
     6
  9
$SURFU
 70
     6
  9
$SURFV
 70
     6
  9
$UCSBASE
  2

  9
$UCSNAME
  2

  9
$UCSORG
 10
0.0
 20
0.0
 30
0.0
  9
$UCSXDIR
 10
1.0
 20
0.0
 30
0.0
  9
$UCSYDIR
 10
0.0
 20
1.0
 30
0.0
  9
$UCSORTHOREF
  2

  9
$UCSORTHOVIEW
 70
     0
  9
$UCSORGTOP
 10
0.0
 20
0.0
 30
0.0
  9
$UCSORGBOTTOM
 10
0.0
 20
0.0
 30
0.0
  9
$UCSORGLEFT
 10
0.0
 20
0.0
 30
0.0
  9
$UCSORGRIGHT
 10
0.0
 20
0.0
 30
0.0
  9
$UCSORGFRONT
 10
0.0
 20
0.0
 30
0.0
  9
$UCSORGBACK
 10
0.0
 20
0.0
 30
0.0
  9
$PUCSBASE
  2

  9
$PUCSNAME
  2

  9
$PUCSORG
 10
0.0
 20
0.0
 30
0.0
  9
$PUCSXDIR
 10
1.0
 20
0.0
 30
0.0
  9
$PUCSYDIR
 10
0.0
 20
1.0
 30
0.0
  9
$PUCSORTHOREF
  2

  9
$PUCSORTHOVIEW
 70
     0
  9
$PUCSORGTOP
 10
0.0
 20
0.0
 30
0.0
  9
$PUCSORGBOTTOM
 10
0.0
 20
0.0
 30
0.0
  9
$PUCSORGLEFT
 10
0.0
 20
0.0
 30
0.0
  9
$PUCSORGRIGHT
 10
0.0
 20
0.0
 30
0.0
  9
$PUCSORGFRONT
 10
0.0
 20
0.0
 30
0.0
  9
$PUCSORGBACK
 10
0.0
 20
0.0
 30
0.0
  9
$USERI1
 70
     0
  9
$USERI2
 70
     0
  9
$USERI3
 70
     0
  9
$USERI4
 70
     0
  9
$USERI5
 70
     0
  9
$USERR1
 40
0.0
  9
$USERR2
 40
0.0
  9
$USERR3
 40
0.0
  9
$USERR4
 40
0.0
  9
$USERR5
 40
0.0
  9
$WORLDVIEW
 70
     1
  9
$SHADEDGE
 70
     3
  9
$SHADEDIF
 70
    70
  9
$TILEMODE
 70
     1
  9
$MAXACTVP
 70
    64
  9
$PINSBASE
 10
0.0
 20
0.0
 30
0.0
  9
$PLIMCHECK
 70
     0
  9
$PEXTMIN
 10
1.000000000000000E+20
 20
1.000000000000000E+20
 30
1.000000000000000E+20
  9
$PEXTMAX
 10
-1.000000000000000E+20
 20
-1.000000000000000E+20
 30
-1.000000000000000E+20
  9
$PLIMMIN
 10
0.0
 20
0.0
  9
$PLIMMAX
 10
12.0
 20
9.0
  9
$UNITMODE
 70
     0
  9
$VISRETAIN
 70
     1
  9
$PLINEGEN
 70
     0
  9
$PSLTSCALE
 70
     0
  9
$TREEDEPTH
 70
  3020
  9
$CMLSTYLE
  2
Standard
  9
$CMLJUST
 70
     0
  9
$CMLSCALE
 40
1.0
  9
$PROXYGRAPHICS
 70
     1
  9
$MEASUREMENT
 70
     0
  9
$CELWEIGHT
370
    -1
  9
$ENDCAPS
280
     0
  9
$JOINSTYLE
280
     0
  9
$LWDISPLAY
290
     0
  9
$INSUNITS
 70
     0
  9
$HYPERLINKBASE
  1

  9
$STYLESHEET
  1

  9
$XEDIT
290
     1
  9
$CEPSNTYPE
380
     0
  9
$PSTYLEMODE
290
     1
  9
$FINGERPRINTGUID
  2
{ADB3D362-E9DC-4BED-B230-3B3BA77FFBA3}
  9
$VERSIONGUID
  2
{8DA795A6-B42A-41CA-B14D-6E1DD4B64E54}
  9
$EXTNAMES
290
     1
  9
$PSVPSCALE
 40
0.0
  9
$OLESTARTUP
290
     0
  0
ENDSEC
  0
SECTION
  2
CLASSES
  0
CLASS
  1
ACDBDICTIONARYWDFLT
  2
AcDbDictionaryWithDefault
  3
AutoCAD 2000
 90
        0
280
     0
281
     0
  0
CLASS
  1
ACDBPLACEHOLDER
  2
AcDbPlaceHolder
  3
AutoCAD 2000
 90
        0
280
     0
281
     0
  0
CLASS
  1
LAYOUT
  2
AcDbLayout
  3
AutoCAD 2000
 90
        0
280
     0
281
     0
  0
ENDSEC
  0
SECTION
  2
TABLES
  0
TABLE
  2
VPORT
  5
8
330
0
100
AcDbSymbolTable
 70
     3
  0
VPORT
  5
9B5
330
8
100
AcDbSymbolTableRecord
100
AcDbViewportTableRecord
  2
*Active
 70
     0
 10
0.0
 20
0.0
 11
1.0
 21
1.0
 12
6.0
 22
4.25
 13
0.0
 23
0.0
 14
0.01
 24
0.01
 15
1.0
 25
1.0
 16
0.0
 26
0.0
 36
1.0
 17
0.0
 27
0.0
 37
0.0
 40
8.5896309314587
 41
1.621478873239436
 42
50.0
 43
0.0
 44
0.0
 50
0.0
 51
0.0
 71
     0
 72
 20000
 73
     1
 74
     0
 75
     0
 76
     1
 77
     0
 78
     0
281
     0
 65
     1
110
0.0
120
0.0
130
0.0
111
1.0
121
0.0
131
0.0
112
0.0
122
1.0
132
0.0
 79
     0
146
0.0
  0
ENDTAB
  0
TABLE
  2
LTYPE
  5
5
330
0
100
AcDbSymbolTable
 70
     4
  0
LTYPE
  5
13
330
5
100
AcDbSymbolTableRecord
100
AcDbLinetypeTableRecord
  2
ByBlock
 70
     0
  3

 72
    65
 73
     0
 40
0.0
  0
LTYPE
  5
14
330
5
100
AcDbSymbolTableRecord
100
AcDbLinetypeTableRecord
  2
ByLayer
 70
     0
  3

 72
    65
 73
     0
 40
0.0
  0
LTYPE
  5
15
330
5
100
AcDbSymbolTableRecord
100
AcDbLinetypeTableRecord
  2
CONTINUOUS
 70
     0
  3
Solid line
 72
    65
 73
     0
 40
0.0
  0
LTYPE
  5
49
330
5
100
AcDbSymbolTableRecord
100
AcDbLinetypeTableRecord
  2
HIDDEN
 70
     0
  3
_ _ _ _ _ _ _ _ _ _ _ _ _ _ _ _ _ _ _ _ _ _ _
 72
    65
 73
     2
 40
0.375
 49
0.25
 74
     0
 49
-0.125
 74
     0
  0
LTYPE
  5
4A
330
5
100
AcDbSymbolTableRecord
100
AcDbLinetypeTableRecord
  2
CENTER
 70
     0
  3
____ _ ____ _ ____ _ ____ _ ____ _ ____ _ ____
 72
    65
 73
     4
 40
2.0
 49
1.25
 74
     0
 49
-0.25
 74
     0
 49
0.25
 74
     0
 49
-0.25
 74
     0
  0
LTYPE
  5
4B
330
5
100
AcDbSymbolTableRecord
100
AcDbLinetypeTableRecord
  2
PHANTOM
 70
     0
  3
_____ _ _ _____ _ _ _____ _ _ _____ _ _ ____
 72
    65
 73
     6
 40
2.5
 49
1.25
 74
     0
 49
-0.25
 74
     0
 49
0.25
 74
     0
 49
-0.25
 74
     0
 49
0.25
 74
     0
 49
-0.25
 74
     0
  0
ENDTAB
  0
TABLE
  2
LAYER
  5
2
330
0
100
AcDbSymbolTable
 70
    10
  0
LAYER
  5
10
330
2
100
AcDbSymbolTableRecord
100
AcDbLayerTableRecord
  2
0
 70
     0
 62
     7
  6
CONTINUOUS
370
    -3
390
F
  0
LAYER
  5
4E
330
2
100
AcDbSymbolTableRecord
100
AcDbLayerTableRecord
  2
FORMAT
 70
     0
 62
     7
  6
CONTINUOUS
370
    -3
390
F
  0
LAYER
  5
4F
330
2
100
AcDbSymbolTableRecord
100
AcDbLayerTableRecord
  2
DIM
 70
     0
 62
     4
  6
CONTINUOUS
370
    -3
390
F
  0
LAYER
  5
50
330
2
100
AcDbSymbolTableRecord
100
AcDbLayerTableRecord
  2
TEXT
 70
     0
 62
     3
  6
CONTINUOUS
370
    -3
390
F
  0
LAYER
  5
51
330
2
100
AcDbSymbolTableRecord
100
AcDbLayerTableRecord
  2
HID
 70
     0
 62
     4
  6
HIDDEN
370
    -3
390
F
  0
LAYER
  5
52
330
2
100
AcDbSymbolTableRecord
100
AcDbLayerTableRecord
  2
OBJ
 70
     0
 62
     7
  6
CONTINUOUS
370
    -3
390
F
  0
LAYER
  5
53
330
2
100
AcDbSymbolTableRecord
100
AcDbLayerTableRecord
  2
OBJ2
 70
     0
 62
     2
  6
CONTINUOUS
370
    -3
390
F
  0
LAYER
  5
54
330
2
100
AcDbSymbolTableRecord
100
AcDbLayerTableRecord
  2
DEFPOINTS
 70
     0
 62
     7
  6
CONTINUOUS
290
     0
370
    -3
390
F
  0
LAYER
  5
55
330
2
100
AcDbSymbolTableRecord
100
AcDbLayerTableRecord
  2
CEN
 70
     0
 62
     4
  6
CENTER
370
    -3
390
F
  0
LAYER
  5
56
330
2
100
AcDbSymbolTableRecord
100
AcDbLayerTableRecord
  2
PHAN
 70
     0
 62
     4
  6
PHANTOM
370
    -3
390
F
  0
ENDTAB
  0
TABLE
  2
STYLE
  5
3
330
0
100
AcDbSymbolTable
 70
     5
  0
STYLE
  5
11
330
3
100
AcDbSymbolTableRecord
100
AcDbTextStyleTableRecord
  2
STANDARD
 70
     0
 40
0.0
 41
1.0
 50
0.0
 71
     0
 42
0.075
  3
txt
  4

  0
STYLE
  5
45
330
3
100
AcDbSymbolTableRecord
100
AcDbTextStyleTableRecord
  2
SIMPLEX
 70
     0
 40
0.15
 41
1.0
 50
0.0
 71
     0
 42
0.15
  3
simplex
  4

  0
STYLE
  5
46
330
3
100
AcDbSymbolTableRecord
100
AcDbTextStyleTableRecord
  2
ROMAND
 70
     0
 40
0.0
 41
1.0
 50
0.0
 71
     0
 42
0.2
  3
romand
  4

  0
STYLE
  5
47
330
3
100
AcDbSymbolTableRecord
100
AcDbTextStyleTableRecord
  2
ROMANT
 70
     0
 40
0.25
 41
1.0
 50
0.0
 71
     0
 42
0.25
  3
romant
  4

  0
STYLE
  5
48
330
3
100
AcDbSymbolTableRecord
100
AcDbTextStyleTableRecord
  2
ROMANS
 70
     0
 40
0.25
 41
1.0
 50
0.0
 71
     0
 42
0.25
  3
romans
  4

  0
ENDTAB
  0
TABLE
  2
VIEW
  5
6
330
0
100
AcDbSymbolTable
 70
     0
  0
ENDTAB
  0
TABLE
  2
UCS
  5
7
330
0
100
AcDbSymbolTable
 70
     0
  0
ENDTAB
  0
TABLE
  2
APPID
  5
9
330
0
100
AcDbSymbolTable
 70
     1
  0
APPID
  5
12
330
9
100
AcDbSymbolTableRecord
100
AcDbRegAppTableRecord
  2
ACAD
 70
     0
  0
ENDTAB
  0
TABLE
  2
DIMSTYLE
  5
A
330
0
100
AcDbSymbolTable
 70
     1
100
AcDbDimStyleTable
 71
     1
340
988
  0
DIMSTYLE
105
988
102
{ACAD_REACTORS
330
59E
330
66B
102
}
330
A
100
AcDbSymbolTableRecord
100
AcDbDimStyleTableRecord
  2
Standard
 70
     0
340
11
  0
ENDTAB
  0
TABLE
  2
BLOCK_RECORD
  5
1
330
0
100
AcDbSymbolTable
 70
    37
  0
BLOCK_RECORD
  5
1E
330
1
100
AcDbSymbolTableRecord
100
AcDbBlockTableRecord
  2
*Model_Space
340
21
  0
BLOCK_RECORD
  5
1A
330
1
100
AcDbSymbolTableRecord
100
AcDbBlockTableRecord
  2
*Paper_Space
340
1D
  0
BLOCK_RECORD
  5
22
330
1
100
AcDbSymbolTableRecord
100
AcDbBlockTableRecord
  2
*X0
340
0
102
{BLKREFS
331
741
102
}
  0
BLOCK_RECORD
  5
23
330
1
100
AcDbSymbolTableRecord
100
AcDbBlockTableRecord
  2
FORMATC
340
0
102
{BLKREFS
331
57C
102
}
  0
BLOCK_RECORD
  5
24
330
1
100
AcDbSymbolTableRecord
100
AcDbBlockTableRecord
  2
ASCC
340
0
102
{BLKREFS
331
592
102
}
  0
BLOCK_RECORD
  5
25
330
1
100
AcDbSymbolTableRecord
100
AcDbBlockTableRecord
  2
ECO-C
340
0
102
{BLKREFS
331
594
331
981
102
}
  0
BLOCK_RECORD
  5
26
330
1
100
AcDbSymbolTableRecord
100
AcDbBlockTableRecord
  2
*X4
340
0
102
{BLKREFS
331
59F
331
937
102
}
  0
BLOCK_RECORD
  5
27
330
1
100
AcDbSymbolTableRecord
100
AcDbBlockTableRecord
  2
4046
340
0
102
{BLKREFS
331
62F
331
6C2
102
}
  0
BLOCK_RECORD
  5
28
330
1
100
AcDbSymbolTableRecord
100
AcDbBlockTableRecord
  2
*D6
340
0
  0
BLOCK_RECORD
  5
29
330
1
100
AcDbSymbolTableRecord
100
AcDbBlockTableRecord
  2
*D7
340
0
  0
BLOCK_RECORD
  5
2A
330
1
100
AcDbSymbolTableRecord
100
AcDbBlockTableRecord
  2
*X8
340
0
102
{BLKREFS
331
66D
102
}
  0
BLOCK_RECORD
  5
2B
330
1
100
AcDbSymbolTableRecord
100
AcDbBlockTableRecord
  2
*X9
340
0
102
{BLKREFS
331
700
102
}
  0
BLOCK_RECORD
  5
2F
330
1
100
AcDbSymbolTableRecord
100
AcDbBlockTableRecord
  2
4043
340
0
102
{BLKREFS
331
94C
331
94E
102
}
  0
BLOCK_RECORD
  5
30
330
1
100
AcDbSymbolTableRecord
100
AcDbBlockTableRecord
  2
*X14
340
0
102
{BLKREFS
331
94D
102
}
  0
BLOCK_RECORD
  5
32
330
1
100
AcDbSymbolTableRecord
100
AcDbBlockTableRecord
  2
*X16
340
0
102
{BLKREFS
331
94F
102
}
  0
BLOCK_RECORD
  5
33
330
1
100
AcDbSymbolTableRecord
100
AcDbBlockTableRecord
  2
BE
340
0
102
{BLKREFS
331
953
102
}
  0
BLOCK_RECORD
  5
34
330
1
100
AcDbSymbolTableRecord
100
AcDbBlockTableRecord
  2
BB
340
0
  0
BLOCK_RECORD
  5
35
330
1
100
AcDbSymbolTableRecord
100
AcDbBlockTableRecord
  2
B1B
340
0
  0
BLOCK_RECORD
  5
36
330
1
100
AcDbSymbolTableRecord
100
AcDbBlockTableRecord
  2
*D20
340
0
  0
BLOCK_RECORD
  5
37
330
1
100
AcDbSymbolTableRecord
100
AcDbBlockTableRecord
  2
*D21
340
0
  0
BLOCK_RECORD
  5
38
330
1
100
AcDbSymbolTableRecord
100
AcDbBlockTableRecord
  2
*D22
340
0
  0
BLOCK_RECORD
  5
39
330
1
100
AcDbSymbolTableRecord
100
AcDbBlockTableRecord
  2
*D23
340
0
  0
BLOCK_RECORD
  5
3C
330
1
100
AcDbSymbolTableRecord
100
AcDbBlockTableRecord
  2
*X26
340
0
102
{BLKREFS
331
96C
102
}
  0
BLOCK_RECORD
  5
3D
330
1
100
AcDbSymbolTableRecord
100
AcDbBlockTableRecord
  2
*X27
340
0
102
{BLKREFS
331
96D
102
}
  0
BLOCK_RECORD
  5
3E
330
1
100
AcDbSymbolTableRecord
100
AcDbBlockTableRecord
  2
*X28
340
0
102
{BLKREFS
331
96E
102
}
  0
BLOCK_RECORD
  5
40
330
1
100
AcDbSymbolTableRecord
100
AcDbBlockTableRecord
  2
*X30
340
0
102
{BLKREFS
331
96F
102
}
  0
BLOCK_RECORD
  5
41
330
1
100
AcDbSymbolTableRecord
100
AcDbBlockTableRecord
  2
*X31
340
0
102
{BLKREFS
331
970
102
}
  0
BLOCK_RECORD
  5
44
330
1
100
AcDbSymbolTableRecord
100
AcDbBlockTableRecord
  2
EXTRU
340
0
  0
BLOCK_RECORD
  5
98A
330
1
100
AcDbSymbolTableRecord
100
AcDbBlockTableRecord
  2
*D35
340
0
  0
BLOCK_RECORD
  5
996
330
1
100
AcDbSymbolTableRecord
100
AcDbBlockTableRecord
  2
*D36
340
0
  0
ENDTAB
  0
ENDSEC
  0
SECTION
  2
BLOCKS
  0
BLOCK
  5
59
330
1E
100
AcDbEntity
  8
0
100
AcDbBlockBegin
  2
*Model_Space
 70
     0
 10
0.0
 20
0.0
 30
0.0
  3
*Model_Space
  1

  0
ENDBLK
  5
5A
330
1E
100
AcDbEntity
  8
0
100
AcDbBlockEnd
  0
BLOCK
  5
57
330
1A
100
AcDbEntity
 67
     1
  8
0
100
AcDbBlockBegin
  2
*Paper_Space
 70
     0
 10
0.0
 20
0.0
 30
0.0
  3
*Paper_Space
  1

  0
ENDBLK
  5
58
330
1A
100
AcDbEntity
 67
     1
  8
0
100
AcDbBlockEnd
  0
BLOCK
  5
5B
330
22
100
AcDbEntity
  8
OBJ2
100
AcDbBlockBegin
  2
*X0
 70
     1
 10
0.0
 20
0.0
 30
0.0
  3
*X0
  1

  0
LINE
  5
5C
330
22
100
AcDbEntity
  8
0
 62
     0
100
AcDbLine
 10
57.36672534227817
 20
21.02143678928961
 30
0.0
 11
57.49072534227818
 21
21.14543678928963
 31
0.0
  0
LINE
  5
5D
330
22
100
AcDbEntity
  8
0
 62
     0
100
AcDbLine
 10
57.36672534227817
 20
21.16285814552692
 30
0.0
 11
57.49072534227818
 21
21.28685814552694
 31
0.0
  0
LINE
  5
5E
330
22
100
AcDbEntity
  8
0
 62
     0
100
AcDbLine
 10
57.36672534227817
 20
21.30427950176423
 30
0.0
 11
57.49072534227818
 21
21.42827950176424
 31
0.0
  0
LINE
  5
5F
330
22
100
AcDbEntity
  8
0
 62
     0
100
AcDbLine
 10
57.36672534227817
 20
21.44570085800154
 30
0.0
 11
57.49072534227818
 21
21.56970085800156
 31
0.0
  0
LINE
  5
60
330
22
100
AcDbEntity
  8
0
 62
     0
100
AcDbLine
 10
57.36672534227817
 20
21.58712221423884
 30
0.0
 11
57.49072534227818
 21
21.71112221423886
 31
0.0
  0
LINE
  5
61
330
22
100
AcDbEntity
  8
0
 62
     0
100
AcDbLine
 10
57.64308773584073
 20
21.86348460780141
 30
0.0
 11
57.74072534227817
 21
21.96112221423886
 31
0.0
  0
LINE
  5
62
330
22
100
AcDbEntity
  8
0
 62
     0
100
AcDbLine
 10
57.36672534227817
 20
21.72854357047616
 30
0.0
 11
57.49072534227818
 21
21.85254357047618
 31
0.0
  0
LINE
  5
63
330
22
100
AcDbEntity
  8
0
 62
     0
100
AcDbLine
 10
57.61638164653188
 20
21.97819987472987
 30
0.0
 11
57.73961014351942
 21
22.10142837171741
 31
0.0
  0
LINE
  5
64
330
22
100
AcDbEntity
  8
0
 62
     0
100
AcDbLine
 10
57.36672534227817
 20
21.86996492671347
 30
0.0
 11
57.6199127624881
 21
22.12315234692341
 31
0.0
  0
LINE
  5
65
330
22
100
AcDbEntity
  8
0
 62
     0
100
AcDbLine
 10
57.3509727662028
 20
21.99563370687541
 30
0.0
 11
57.4784914062508
 21
22.12315234692341
 31
0.0
  0
LINE
  5
66
330
22
100
AcDbEntity
  8
0
 62
     0
100
AcDbLine
 10
56.99272569193913
 20
21.77880798884905
 30
0.0
 11
57.11672534227817
 21
21.90280763918809
 31
0.0
  0
LINE
  5
67
330
22
100
AcDbEntity
  8
0
 62
     0
100
AcDbLine
 10
57.21307005001349
 20
21.99915234692342
 30
0.0
 11
57.33707005001349
 21
22.12315234692341
 31
0.0
  0
LINE
  5
68
330
22
100
AcDbEntity
  8
0
 62
     0
100
AcDbLine
 10
56.99272534227817
 20
21.92022899542541
 30
0.0
 11
57.19564869377617
 21
22.12315234692341
 31
0.0
  0
LINE
  5
69
330
22
100
AcDbEntity
  8
0
 62
     0
100
AcDbLine
 10
56.99272534227818
 20
22.06165035166272
 30
0.0
 11
57.05422733753887
 21
22.12315234692341
 31
0.0
  0
LINE
  5
6A
330
22
100
AcDbEntity
  8
0
 62
     0
100
AcDbLine
 10
57.36672534227817
 20
20.8800154330523
 30
0.0
 11
57.49072534227818
 21
21.00401543305232
 31
0.0
  0
LINE
  5
6B
330
22
100
AcDbEntity
  8
0
 62
     0
100
AcDbLine
 10
57.36672534227817
 20
20.73859407681499
 30
0.0
 11
57.49072534227818
 21
20.86259407681501
 31
0.0
  0
LINE
  5
6C
330
22
100
AcDbEntity
  8
0
 62
     0
100
AcDbLine
 10
57.36672534227817
 20
20.59717272057768
 30
0.0
 11
57.51875745487099
 21
20.74920483317051
 31
0.0
  0
LINE
  5
6D
330
22
100
AcDbEntity
  8
0
 62
     0
100
AcDbLine
 10
57.61772534227817
 20
20.84817272057768
 30
0.0
 11
57.65470496862389
 21
20.88515234692341
 31
0.0
  0
LINE
  5
6E
330
22
100
AcDbEntity
  8
0
 62
     0
100
AcDbLine
 10
57.36672534227817
 20
20.45575136434038
 30
0.0
 11
57.49072534227818
 21
20.57975136434039
 31
0.0
  0
LINE
  5
6F
330
22
100
AcDbEntity
  8
0
 62
     0
100
AcDbLine
 10
57.5361263248612
 20
20.62515234692341
 30
0.0
 11
57.74072534227817
 21
20.82975136434039
 31
0.0
  0
LINE
  5
70
330
22
100
AcDbEntity
  8
0
 62
     0
100
AcDbLine
 10
56.99272534227818
 20
19.94033000810309
 30
0.0
 11
57.05454768109852
 21
20.00215234692342
 31
0.0
  0
LINE
  5
71
330
22
100
AcDbEntity
  8
0
 62
     0
100
AcDbLine
 10
57.61772534227817
 20
20.56533000810307
 30
0.0
 11
57.74072534227817
 21
20.68833000810308
 31
0.0
  0
LINE
  5
72
330
22
100
AcDbEntity
  8
0
 62
     0
100
AcDbLine
 10
57.36672534227817
 20
20.31433000810306
 30
0.0
 11
57.49072534227818
 21
20.43833000810308
 31
0.0
  0
LINE
  5
73
330
22
100
AcDbEntity
  8
0
 62
     0
100
AcDbLine
 10
55.99272534227818
 20
18.79890865186577
 30
0.0
 11
56.07396903733583
 21
18.88015234692342
 31
0.0
  0
LINE
  5
74
330
22
100
AcDbEntity
  8
0
 62
     0
100
AcDbLine
 10
57.68296903733583
 20
20.48915234692342
 30
0.0
 11
57.74072534227817
 21
20.54690865186576
 31
0.0
  0
LINE
  5
75
330
22
100
AcDbEntity
  8
0
 62
     0
100
AcDbLine
 10
56.99272534227818
 20
19.79890865186577
 30
0.0
 11
57.11672534227819
 21
19.92290865186577
 31
0.0
  0
LINE
  5
76
330
22
100
AcDbEntity
  8
0
 62
     0
100
AcDbLine
 10
57.36672534227817
 20
20.17290865186575
 30
0.0
 11
57.49072534227818
 21
20.29690865186577
 31
0.0
  0
LINE
  5
77
330
22
100
AcDbEntity
  8
0
 62
     0
100
AcDbLine
 10
56.09139039357313
 20
18.75615234692342
 30
0.0
 11
56.21539039357314
 21
18.88015234692342
 31
0.0
  0
LINE
  5
78
330
22
100
AcDbEntity
  8
0
 62
     0
100
AcDbLine
 10
57.36672534227817
 20
20.03148729562844
 30
0.0
 11
57.49072534227818
 21
20.15548729562846
 31
0.0
  0
LINE
  5
79
330
22
100
AcDbEntity
  8
0
 62
     0
100
AcDbLine
 10
56.99272534227818
 20
19.65748729562846
 30
0.0
 11
57.11672534227819
 21
19.78148729562847
 31
0.0
  0
LINE
  5
7A
330
22
100
AcDbEntity
  8
0
 62
     0
100
AcDbLine
 10
56.23281174981045
 20
18.75615234692342
 30
0.0
 11
56.35681174981045
 21
18.88015234692342
 31
0.0
  0
LINE
  5
7B
330
22
100
AcDbEntity
  8
0
 62
     0
100
AcDbLine
 10
57.36672534227817
 20
19.89006593939113
 30
0.0
 11
57.49072534227818
 21
20.01406593939115
 31
0.0
  0
LINE
  5
7C
330
22
100
AcDbEntity
  8
0
 62
     0
100
AcDbLine
 10
56.99272534227818
 20
19.51606593939115
 30
0.0
 11
57.1167253422782
 21
19.64006593939117
 31
0.0
  0
LINE
  5
7D
330
22
100
AcDbEntity
  8
0
 62
     0
100
AcDbLine
 10
56.37423310604776
 20
18.75615234692342
 30
0.0
 11
56.49823310604777
 21
18.88015234692342
 31
0.0
  0
LINE
  5
7E
330
22
100
AcDbEntity
  8
0
 62
     0
100
AcDbLine
 10
57.36672534227817
 20
19.74864458315382
 30
0.0
 11
57.49072534227818
 21
19.87264458315383
 31
0.0
  0
LINE
  5
7F
330
22
100
AcDbEntity
  8
0
 62
     0
100
AcDbLine
 10
56.99272534227818
 20
19.37464458315383
 30
0.0
 11
57.11672534227821
 21
19.49864458315387
 31
0.0
  0
LINE
  5
80
330
22
100
AcDbEntity
  8
0
 62
     0
100
AcDbLine
 10
56.51565446228506
 20
18.75615234692342
 30
0.0
 11
56.63965446228507
 21
18.88015234692342
 31
0.0
  0
LINE
  5
81
330
22
100
AcDbEntity
  8
0
 62
     0
100
AcDbLine
 10
57.36672534227817
 20
19.60722322691652
 30
0.0
 11
57.49072534227818
 21
19.73122322691653
 31
0.0
  0
LINE
  5
82
330
22
100
AcDbEntity
  8
0
 62
     0
100
AcDbLine
 10
56.99272534227818
 20
19.23322322691653
 30
0.0
 11
57.13646396501213
 21
19.37696184965048
 31
0.0
  0
LINE
  5
83
330
22
100
AcDbEntity
  8
0
 62
     0
100
AcDbLine
 10
56.65707581852237
 20
18.75615234692342
 30
0.0
 11
57.11672534227817
 21
19.21580187067921
 31
0.0
  0
LINE
  5
84
330
22
100
AcDbEntity
  8
0
 62
     0
100
AcDbLine
 10
57.36672534227817
 20
19.4658018706792
 30
0.0
 11
57.49072534227818
 21
19.58980187067922
 31
0.0
  0
LINE
  5
85
330
22
100
AcDbEntity
  8
0
 62
     0
100
AcDbLine
 10
57.15107581852238
 20
19.25015234692342
 30
0.0
 11
57.27607581852238
 21
19.37515234692342
 31
0.0
  0
LINE
  5
86
330
22
100
AcDbEntity
  8
0
 62
     0
100
AcDbLine
 10
56.79849717475968
 20
18.75615234692342
 30
0.0
 11
57.11655975003597
 21
19.0742149221997
 31
0.0
  0
LINE
  5
87
330
22
100
AcDbEntity
  8
0
 62
     0
100
AcDbLine
 10
57.29249717475968
 20
19.25015234692342
 30
0.0
 11
57.49072534227818
 21
19.44838051444191
 31
0.0
  0
LINE
  5
88
330
22
100
AcDbEntity
  8
0
 62
     0
100
AcDbLine
 10
56.93991853099699
 20
18.75615234692341
 30
0.0
 11
57.06391853099699
 21
18.88015234692342
 31
0.0
  0
LINE
  5
89
330
22
100
AcDbEntity
  8
0
 62
     0
100
AcDbLine
 10
57.61772534227818
 20
19.4339591582046
 30
0.0
 11
57.69491853099699
 21
19.51115234692342
 31
0.0
  0
LINE
  5
8A
330
22
100
AcDbEntity
  8
0
 62
     0
100
AcDbLine
 10
57.433918530997
 20
19.25015234692342
 30
0.0
 11
57.558918530997
 21
19.37515234692342
 31
0.0
  0
LINE
  5
8B
330
22
100
AcDbEntity
  8
0
 62
     0
100
AcDbLine
 10
57.0813398872343
 20
18.75615234692341
 30
0.0
 11
57.2053398872343
 21
18.88015234692342
 31
0.0
  0
LINE
  5
8C
330
22
100
AcDbEntity
  8
0
 62
     0
100
AcDbLine
 10
57.5753398872343
 20
19.25015234692342
 30
0.0
 11
57.74072534227818
 21
19.4155378019673
 31
0.0
  0
LINE
  5
8D
330
22
100
AcDbEntity
  8
0
 62
     0
100
AcDbLine
 10
57.2227612434716
 20
18.75615234692341
 30
0.0
 11
57.34676124347161
 21
18.88015234692342
 31
0.0
  0
LINE
  5
8E
330
22
100
AcDbEntity
  8
0
 62
     0
100
AcDbLine
 10
57.36418259970892
 20
18.75615234692341
 30
0.0
 11
57.61418259970893
 21
19.00615234692342
 31
0.0
  0
LINE
  5
8F
330
22
100
AcDbEntity
  8
0
 62
     0
100
AcDbLine
 10
57.50560395594622
 20
18.75615234692341
 30
0.0
 11
57.73803061784076
 21
18.98857900881795
 31
0.0
  0
LINE
  5
90
330
22
100
AcDbEntity
  8
0
 62
     0
100
AcDbLine
 10
57.64702531218354
 20
18.75615234692341
 30
0.0
 11
57.74072534227819
 21
18.84985237701807
 31
0.0
  0
ENDBLK
  5
91
330
22
100
AcDbEntity
  8
OBJ2
100
AcDbBlockEnd
  0
BLOCK
  5
92
330
23
100
AcDbEntity
  8
DIM
100
AcDbBlockBegin
  2
FORMATC
 70
     2
 10
0.0
 20
0.0
 30
0.0
  3
FORMATC
  1

  0
LINE
  5
93
330
23
100
AcDbEntity
  8
FORMAT
100
AcDbLine
 10
12.94999999999999
 20
2.7
 30
0.0
 11
17.75
 21
2.7
 31
0.0
  0
LINE
  5
94
330
23
100
AcDbEntity
  8
FORMAT
100
AcDbLine
 10
17.75
 20
0.5
 30
0.0
 11
17.75
 21
2.95
 31
0.0
  0
LINE
  5
95
330
23
100
AcDbEntity
  8
FORMAT
100
AcDbLine
 10
14.65
 20
0.5
 30
0.0
 11
14.65
 21
2.7
 31
0.0
  0
LINE
  5
96
330
23
100
AcDbEntity
  8
FORMAT
100
AcDbLine
 10
16.3
 20
0.5
 30
0.0
 11
16.3
 21
2.7
 31
0.0
  0
LINE
  5
97
330
23
100
AcDbEntity
  8
FORMAT
100
AcDbLine
 10
14.65
 20
1.7375
 30
0.0
 11
16.3
 21
1.7375
 31
0.0
  0
LINE
  5
98
330
23
100
AcDbEntity
  8
FORMAT
100
AcDbLine
 10
14.65
 20
1.2875
 30
0.0
 11
16.3
 21
1.2875
 31
0.0
  0
LINE
  5
99
330
23
100
AcDbEntity
  8
FORMAT
100
AcDbLine
 10
16.3
 20
2.431999999999999
 30
0.0
 11
17.75
 21
2.431999999999999
 31
0.0
  0
LINE
  5
9A
330
23
100
AcDbEntity
  8
FORMAT
100
AcDbLine
 10
16.3
 20
1.9
 30
0.0
 11
17.75
 21
1.9
 31
0.0
  0
LINE
  5
9B
330
23
100
AcDbEntity
  8
FORMAT
100
AcDbLine
 10
17.75
 20
1.85
 30
0.0
 11
21.6
 21
1.85
 31
0.0
  0
LINE
  5
9C
330
23
100
AcDbEntity
  8
FORMAT
100
AcDbLine
 10
17.75
 20
0.95
 30
0.0
 11
21.6
 21
0.95
 31
0.0
  0
LINE
  5
9D
330
23
100
AcDbEntity
  8
FORMAT
100
AcDbLine
 10
17.1
 20
2.7
 30
0.0
 11
17.1
 21
1.9
 31
0.0
  0
LINE
  5
9E
330
23
100
AcDbEntity
  8
FORMAT
100
AcDbLine
 10
18.175
 20
0.5
 30
0.0
 11
18.175
 21
0.95
 31
0.0
  0
LINE
  5
9F
330
23
100
AcDbEntity
  8
FORMAT
100
AcDbLine
 10
18.6
 20
0.5
 30
0.0
 11
18.6
 21
0.95
 31
0.0
  0
LINE
  5
A0
330
23
100
AcDbEntity
  8
FORMAT
100
AcDbLine
 10
20.52499999999999
 20
0.5
 30
0.0
 11
20.52499999999999
 21
0.95
 31
0.0
  0
LINE
  5
A1
330
23
100
AcDbEntity
  8
FORMAT
100
AcDbLine
 10
20.95
 20
0.5
 30
0.0
 11
20.95
 21
0.95
 31
0.0
  0
LINE
  5
A2
330
23
100
AcDbEntity
  8
FORMAT
100
AcDbLine
 10
12.94999999999999
 20
0.725
 30
0.0
 11
14.65
 21
0.725
 31
0.0
  0
LINE
  5
A3
330
23
100
AcDbEntity
  8
FORMAT
100
AcDbLine
 10
12.94999999999999
 20
0.95
 30
0.0
 11
14.65
 21
0.95
 31
0.0
  0
LINE
  5
A4
330
23
100
AcDbEntity
  8
FORMAT
100
AcDbLine
 10
12.94999999999999
 20
1.175
 30
0.0
 11
14.65
 21
1.175
 31
0.0
  0
LINE
  5
A5
330
23
100
AcDbEntity
  8
FORMAT
100
AcDbLine
 10
12.94999999999999
 20
1.399999999999999
 30
0.0
 11
14.65
 21
1.399999999999999
 31
0.0
  0
LINE
  5
A6
330
23
100
AcDbEntity
  8
FORMAT
100
AcDbLine
 10
12.94999999999999
 20
1.625
 30
0.0
 11
14.65
 21
1.625
 31
0.0
  0
LINE
  5
A7
330
23
100
AcDbEntity
  8
FORMAT
100
AcDbLine
 10
12.94999999999999
 20
1.85
 30
0.0
 11
14.65
 21
1.85
 31
0.0
  0
LINE
  5
A8
330
23
100
AcDbEntity
  8
FORMAT
100
AcDbLine
 10
12.94999999999999
 20
2.075
 30
0.0
 11
14.65
 21
2.075
 31
0.0
  0
LINE
  5
A9
330
23
100
AcDbEntity
  8
FORMAT
100
AcDbLine
 10
12.94999999999999
 20
2.299999999999999
 30
0.0
 11
14.65
 21
2.299999999999999
 31
0.0
  0
LINE
  5
AA
330
23
100
AcDbEntity
  8
FORMAT
100
AcDbLine
 10
12.94999999999999
 20
2.524999999999999
 30
0.0
 11
14.65
 21
2.524999999999999
 31
0.0
  0
LINE
  5
AB
330
23
100
AcDbEntity
  8
FORMAT
100
AcDbLine
 10
13.8
 20
2.7
 30
0.0
 11
13.8
 21
0.725
 31
0.0
  0
TEXT
  5
AC
330
23
100
AcDbEntity
  8
FORMAT
100
AcDbText
 10
18.26865978619995
 20
0.5752790643658373
 30
0.0
 40
0.2
  1
C
  7
ROMAND
100
AcDbText
  0
TEXT
  5
AE
330
23
100
AcDbEntity
  8
FORMAT
 62
     5
100
AcDbText
 10
13.39098487941573
 20
0.556417455698105
 30
0.0
 40
0.05
  1
APPLICATION
  7
SIMPLEX
100
AcDbText
  0
TEXT
  5
B0
330
23
100
AcDbEntity
  8
FORMAT
 62
     5
100
AcDbText
 10
13.11843657055881
 20
0.7638951510431611
 30
0.0
 40
0.05
  1
NEXT ASSY
  7
SIMPLEX
100
AcDbText
  0
TEXT
  5
B1
330
23
100
AcDbEntity
  8
FORMAT
 62
     5
100
AcDbText
 10
14.70673533596638
 20
1.622098345424983
 30
0.0
 40
0.05
  1
BLANK SIZE
  7
SIMPLEX
100
AcDbText
  0
TEXT
  5
B2
330
23
100
AcDbEntity
  8
FORMAT
 62
     5
100
AcDbText
 10
14.6973371184196
 20
1.159988933065541
 30
0.0
 40
0.05
  1
FINISH
  7
SIMPLEX
100
AcDbText
  0
TEXT
  5
B3
330
23
100
AcDbEntity
  8
FORMAT
 62
     5
100
AcDbText
 10
16.35142340665471
 20
2.602901996147067
 30
0.0
 40
0.05
  1
DRAWN BY
  7
SIMPLEX
100
AcDbText
  0
TEXT
  5
B4
330
23
100
AcDbEntity
  8
FORMAT
 62
     5
100
AcDbText
 10
16.34202518910791
 20
2.338839474798814
 30
0.0
 40
0.05
  1
CKD
  7
SIMPLEX
100
AcDbText
  0
TEXT
  5
B5
330
23
100
AcDbEntity
  8
FORMAT
 62
     5
100
AcDbText
 10
16.34202518910791
 20
2.093638562118293
 30
0.0
 40
0.05
  1
APPVD
  7
SIMPLEX
100
AcDbText
  0
TEXT
  5
B6
330
23
100
AcDbEntity
  8
FORMAT
 62
     5
100
AcDbText
 10
17.87393464923475
 20
1.725837193097512
 30
0.0
 40
0.05
  1
TITLE
  7
SIMPLEX
100
AcDbText
  0
TEXT
  5
B7
330
23
100
AcDbEntity
  8
FORMAT
 62
     5
100
AcDbText
 10
17.80814712640721
 20
0.8582031943818229
 30
0.0
 40
0.05
  1
SCALE
  7
SIMPLEX
100
AcDbText
  0
TEXT
  5
B8
330
23
100
AcDbEntity
  8
FORMAT
 62
     5
100
AcDbText
 10
18.24046513355957
 20
0.8393415857140906
 30
0.0
 40
0.05
  1
SIZE
  7
SIMPLEX
100
AcDbText
  0
TEXT
  5
B9
330
23
100
AcDbEntity
  8
FORMAT
 62
     5
100
AcDbText
 10
18.7009777933523
 20
0.8393415857140906
 30
0.0
 40
0.05
  1
DRAWING NO
  7
SIMPLEX
100
AcDbText
  0
TEXT
  5
BA
330
23
100
AcDbEntity
  8
FORMAT
 62
     5
100
AcDbText
 10
20.59941773780396
 20
0.8299107813802244
 30
0.0
 40
0.05
  1
REV
  7
SIMPLEX
100
AcDbText
  0
TEXT
  5
BB
330
23
100
AcDbEntity
  8
FORMAT
 62
     5
100
AcDbText
 10
21.06932861514348
 20
0.8393415857140906
 30
0.0
 40
0.05
  1
SHEET
  7
SIMPLEX
100
AcDbText
  0
LINE
  5
BC
330
23
100
AcDbEntity
  8
FORMAT
100
AcDbLine
 10
18.2
 20
16.5
 30
0.0
 11
18.2
 21
15.2
 31
0.0
  0
LINE
  5
BD
330
23
100
AcDbEntity
  8
FORMAT
100
AcDbLine
 10
18.2
 20
15.2
 30
0.0
 11
21.6
 21
15.2
 31
0.0
  0
LINE
  5
BE
330
23
100
AcDbEntity
  8
FORMAT
100
AcDbLine
 10
18.2
 20
15.4166
 30
0.0
 11
21.6
 21
15.4166
 31
0.0
  0
LINE
  5
BF
330
23
100
AcDbEntity
  8
FORMAT
100
AcDbLine
 10
18.2
 20
15.6332
 30
0.0
 11
21.6
 21
15.6332
 31
0.0
  0
LINE
  5
C0
330
23
100
AcDbEntity
  8
FORMAT
100
AcDbLine
 10
18.2
 20
15.8498
 30
0.0
 11
21.6
 21
15.8498
 31
0.0
  0
LINE
  5
C1
330
23
100
AcDbEntity
  8
FORMAT
100
AcDbLine
 10
18.2
 20
16.0664
 30
0.0
 11
21.6
 21
16.0664
 31
0.0
  0
LINE
  5
C2
330
23
100
AcDbEntity
  8
FORMAT
100
AcDbLine
 10
18.2
 20
16.283
 30
0.0
 11
21.6
 21
16.283
 31
0.0
  0
LINE
  5
C3
330
23
100
AcDbEntity
  8
FORMAT
100
AcDbLine
 10
18.625
 20
16.283
 30
0.0
 11
18.625
 21
15.2
 31
0.0
  0
LINE
  5
C4
330
23
100
AcDbEntity
  8
FORMAT
100
AcDbLine
 10
20.325
 20
16.283
 30
0.0
 11
20.325
 21
15.2
 31
0.0
  0
LINE
  5
C5
330
23
100
AcDbEntity
  8
FORMAT
100
AcDbLine
 10
20.75
 20
16.283
 30
0.0
 11
20.75
 21
15.2
 31
0.0
  0
LINE
  5
C6
330
23
100
AcDbEntity
  8
FORMAT
100
AcDbLine
 10
21.175
 20
16.283
 30
0.0
 11
21.175
 21
15.2
 31
0.0
  0
TEXT
  5
C7
330
23
100
AcDbEntity
  8
FORMAT
 62
     5
100
AcDbText
 10
19.61602916871933
 20
16.34696991077325
 30
0.0
 40
0.05
  1
REVISIONS
  7
SIMPLEX
100
AcDbText
  0
TEXT
  5
C8
330
23
100
AcDbEntity
  8
FORMAT
 62
     5
100
AcDbText
 10
18.31285471406809
 20
16.14141091879585
 30
0.0
 40
0.05
  1
SYM
  7
SIMPLEX
100
AcDbText
  0
TEXT
  5
C9
330
23
100
AcDbEntity
  8
FORMAT
 62
     5
100
AcDbText
 10
19.06156958714324
 20
16.13786679824451
 30
0.0
 40
0.05
  1
E C O NUMBER
  7
SIMPLEX
100
AcDbText
  0
TEXT
  5
CA
330
23
100
AcDbEntity
  8
FORMAT
 62
     5
100
AcDbText
 10
20.45301592562084
 20
16.13786679824451
 30
0.0
 40
0.05
  1
BY
  7
SIMPLEX
100
AcDbText
  0
TEXT
  5
CB
330
23
100
AcDbEntity
  8
FORMAT
 62
     5
100
AcDbText
 10
20.85561715045954
 20
16.13786679824451
 30
0.0
 40
0.05
  1
DATE
  7
SIMPLEX
100
AcDbText
  0
TEXT
  5
CC
330
23
100
AcDbEntity
  8
FORMAT
 62
     5
100
AcDbText
 10
21.25468678560667
 20
16.13786679824451
 30
0.0
 40
0.05
  1
APPVD
  7
SIMPLEX
100
AcDbText
  0
CIRCLE
  5
CD
330
23
100
AcDbEntity
  8
FORMAT
 62
     5
100
AcDbCircle
 10
17.04640820919665
 20
0.9949870281286537
 30
0.0
 40
0.0178206599079639
  0
TEXT
  5
CE
330
23
100
AcDbEntity
  8
FORMAT
 62
     5
100
AcDbText
 10
16.41272355218246
 20
0.9556416966161275
 30
0.0
 40
0.0564836382883284
  1
ANGULAR %%P 1
  7
SIMPLEX
100
AcDbText
  0
TEXT
  5
CF
330
23
100
AcDbEntity
  8
FORMAT
 62
     5
100
AcDbText
 10
16.41272355218246
 20
1.059006754683768
 30
0.0
 40
0.0564836382883284
  1
DECIMAL %%P .010 [.254]
  7
SIMPLEX
100
AcDbText
  0
TEXT
  5
D0
330
23
100
AcDbEntity
  8
FORMAT
 62
     5
100
AcDbText
 10
16.41272355218246
 20
1.162371812751409
 30
0.0
 40
0.0564836382883284
  1
FRACTIONAL %%P 1/32 [.794]
  7
SIMPLEX
100
AcDbText
  0
TEXT
  5
D1
330
23
100
AcDbEntity
  8
FORMAT
 62
     5
100
AcDbText
 10
16.40442865262381
 20
1.26573687081905
 30
0.0
 40
0.0564836382883284
  1
TOLERANCES
  7
SIMPLEX
100
AcDbText
  0
TEXT
  5
D2
330
23
100
AcDbEntity
  8
FORMAT
 62
     5
100
AcDbText
 10
16.40414903165574
 20
1.384379085588744
 30
0.0
 40
0.0564836382883284
  1
[ ] = MILLIMETERS
  7
SIMPLEX
100
AcDbText
  0
TEXT
  5
D3
330
23
100
AcDbEntity
  8
FORMAT
 62
     5
100
AcDbText
 10
16.40771316363734
 20
1.498838231806999
 30
0.0
 40
0.0564836382883284
  1
ALL DIMENSIONS IN INCHES
  7
SIMPLEX
100
AcDbText
  0
TEXT
  5
D4
330
23
100
AcDbEntity
  8
FORMAT
 62
     5
100
AcDbText
 10
16.34558990200597
 20
0.5780695595564165
 30
0.0
 40
0.0564836382883284
  1
DO NOT SCALE THIS DRAWING
  7
SIMPLEX
100
AcDbText
  0
LINE
  5
D5
330
23
100
AcDbEntity
  8
FORMAT
100
AcDbLine
 10
16.46551955283711
 20
1.606428081168397
 30
0.0
 11
17.58709012379107
 21
1.606428081168397
 31
0.0
  0
TEXT
  5
D6
330
23
100
AcDbEntity
  8
FORMAT
 62
     5
100
AcDbText
 10
16.76427852588598
 20
1.670311802363297
 30
0.0
 40
0.0564836382883284
  1
SPECIFIED
  7
SIMPLEX
100
AcDbText
  0
TEXT
  5
D7
330
23
100
AcDbEntity
  8
FORMAT
 62
     5
100
AcDbText
 10
16.58796175490631
 20
1.77842271515467
 30
0.0
 40
0.0564836382883284
  1
UNLESS OTHERWISE
  7
SIMPLEX
100
AcDbText
  0
TEXT
  5
D8
330
23
100
AcDbEntity
  8
FORMAT
 62
     5
100
AcDbText
 10
16.40701025627367
 20
0.8521092692565975
 30
0.0
 40
0.0564836382883284
  1
REMOVE BURRS AND
  7
SIMPLEX
100
AcDbText
  0
TEXT
  5
D9
330
23
100
AcDbEntity
  8
FORMAT
 62
     5
100
AcDbText
 10
16.41272355218246
 20
0.7489115804808458
 30
0.0
 40
0.0564836382883284
  1
SHARP EDGES
  7
SIMPLEX
100
AcDbText
  0
LINE
  5
DA
330
23
100
AcDbEntity
  8
FORMAT
100
AcDbLine
 10
16.3
 20
0.6907788688640761
 30
0.0
 11
17.75
 21
0.6907788688640761
 31
0.0
  0
TEXT
  5
DB
330
23
100
AcDbEntity
  8
FORMAT
 62
     5
100
AcDbText
 10
14.01259482979045
 20
0.7638951510431611
 30
0.0
 40
0.05
  1
USED ON
  7
SIMPLEX
100
AcDbText
  0
TEXT
  5
DC
330
23
100
AcDbEntity
  8
FORMAT
 62
     5
100
AcDbText
 10
14.72712408367178
 20
2.602901996147067
 30
0.0
 40
0.05
  1
MATERIAL
  7
SIMPLEX
100
AcDbText
  0
TEXT
  5
DD
330
23
100
AcDbEntity
  8
FORMAT
 62
     5
100
AcDbText
 10
17.17150938405651
 20
2.602901996147067
 30
0.0
 40
0.05
  1
DATE
  7
SIMPLEX
100
AcDbText
  0
LINE
  5
DE
330
23
100
AcDbEntity
  8
FORMAT
100
AcDbLine
 10
16.3
 20
2.178001369863013
 30
0.0
 11
17.75
 21
2.178001369863013
 31
0.0
  0
LWPOLYLINE
  5
DF
330
23
100
AcDbEntity
  8
FORMAT
100
AcDbPolyline
 90
        4
 70
     1
 43
0.03
 10
0.5
 20
16.5
 10
0.5
 20
0.5
 10
21.6
 20
0.5
 10
21.6
 20
16.5
  0
LWPOLYLINE
  5
E5
330
23
100
AcDbEntity
  8
FORMAT
100
AcDbPolyline
 90
        3
 70
     0
 43
0.03
 10
12.94999999999999
 20
0.5
 10
12.94999999999999
 20
2.95
 10
21.6
 20
2.95
  0
ATTDEF
  5
EA
330
23
100
AcDbEntity
  8
FORMAT
100
AcDbText
 10
19.32083333333333
 20
1.623634204275534
 30
0.0
 40
0.175
  1

  7
SIMPLEX
 72
     1
 11
19.675
 21
1.623634204275534
 31
0.0
100
AcDbAttributeDefinition
  3
TITLE 1
  2
TITLE1
 70
     0
  0
ATTDEF
  5
EB
330
23
100
AcDbEntity
  8
FORMAT
100
AcDbText
 10
19.28333333333333
 20
1.323634204275534
 30
0.0
 40
0.175
  1

  7
SIMPLEX
 72
     1
 11
19.675
 21
1.323634204275534
 31
0.0
100
AcDbAttributeDefinition
  3
TITLE 2
  2
TITLE2
 70
     0
  0
ATTDEF
  5
EC
330
23
100
AcDbEntity
  8
FORMAT
100
AcDbText
 10
19.28333333333333
 20
1.023634204275534
 30
0.0
 40
0.175
  1

  7
SIMPLEX
 72
     1
 11
19.675
 21
1.023634204275534
 31
0.0
100
AcDbAttributeDefinition
  3
TITLE 3
  2
TITLE3
 70
     0
  0
ATTDEF
  5
ED
330
23
100
AcDbEntity
  8
FORMAT
100
AcDbText
 10
18.83611702359065
 20
0.593776903104435
 30
0.0
 40
0.175
  1

  7
SIMPLEX
 72
     1
 11
19.44861702359065
 21
0.593776903104435
 31
0.0
100
AcDbAttributeDefinition
  3
DRAWING NUMBER
  2
DWGNAME
 70
     0
  0
ATTDEF
  5
EE
330
23
100
AcDbEntity
  8
FORMAT
 62
     2
100
AcDbText
 10
20.54667610236454
 20
0.5787333559943795
 30
0.0
 40
0.15
  1
A
  7
SIMPLEX
 72
     1
 11
20.74667610236454
 21
0.5787333559943795
 31
0.0
100
AcDbAttributeDefinition
  3
CURRENT REV
  2
REV
 70
     0
  0
ATTDEF
  5
EF
330
23
100
AcDbEntity
  8
FORMAT
 62
     2
100
AcDbText
 10
16.34502454584619
 20
2.472533090553525
 30
0.0
 40
0.1
  1

  7
SIMPLEX
100
AcDbAttributeDefinition
  3
DRAWN BY
  2
DRAFTER
 70
     0
  0
ATTDEF
  5
F0
330
23
100
AcDbEntity
  8
FORMAT
 62
     2
100
AcDbText
 10
17.11559778305621
 20
2.471100554235946
 30
0.0
 40
0.1
  1

 41
1.496437054631826
  7
SIMPLEX
 72
     5
 11
17.72129849564529
 21
2.471100554235946
 31
0.0
100
AcDbAttributeDefinition
  3
DATE DRAWN
  2
DATE1
 70
     0
  0
ATTDEF
  5
F1
330
23
100
AcDbEntity
  8
FORMAT
 62
     2
100
AcDbText
 10
16.34502454584619
 20
1.950534460416538
 30
0.0
 40
0.1
  1

  7
SIMPLEX
100
AcDbAttributeDefinition
  3
APPROVED BY
  2
APPVD
 70
     0
  0
ATTDEF
  5
F2
330
23
100
AcDbEntity
  8
FORMAT
 62
     2
100
AcDbText
 10
17.11559778305621
 20
1.949101924098959
 30
0.0
 40
0.1
  1

 41
1.353161166422396
  7
SIMPLEX
 72
     5
 11
17.72129849564529
 21
1.949101924098959
 31
0.0
100
AcDbAttributeDefinition
  3
DATE APPROVED
  2
DATE2
 70
     0
  0
ATTDEF
  5
F3
330
23
100
AcDbEntity
  8
FORMAT
 62
     2
100
AcDbText
 10
21.08388755374063
 20
0.5819004185438648
 30
0.0
 40
0.15
  1
1/1
  7
SIMPLEX
 72
     1
 11
21.28388755374063
 21
0.5819004185438648
 31
0.0
100
AcDbAttributeDefinition
  3
SHEETS
  2
SHT
 70
     0
  0
ATTDEF
  5
F4
330
23
100
AcDbEntity
  8
FORMAT
 62
     2
100
AcDbText
 10
14.72623493630423
 20
2.399088355732454
 30
0.0
 40
0.125
  1

 41
0.85
  7
SIMPLEX
100
AcDbAttributeDefinition
  3
MATERIAL 1
  2
MATL1
 70
     0
  0
ATTDEF
  5
F5
330
23
100
AcDbEntity
  8
FORMAT
 62
     2
100
AcDbText
 10
14.72623493630423
 20
2.20362073571572
 30
0.0
 40
0.125
  1

 41
0.85
  7
SIMPLEX
100
AcDbAttributeDefinition
  3
MATERIAL 2
  2
MATL2
 70
     0
  0
ATTDEF
  5
F6
330
23
100
AcDbEntity
  8
FORMAT
 62
     2
100
AcDbText
 10
14.72623493630423
 20
2.01417959728127
 30
0.0
 40
0.125
  1

 41
0.85
  7
SIMPLEX
100
AcDbAttributeDefinition
  3
MATERIAL 3
  2
MATL3
 70
     0
  0
ATTDEF
  5
F7
330
23
100
AcDbEntity
  8
FORMAT
 62
     2
100
AcDbText
 10
14.71515021738103
 20
1.404222103747503
 30
0.0
 40
0.125
  1

 41
0.85
  7
SIMPLEX
100
AcDbAttributeDefinition
  3
BLANK SIZE
  2
BLANK
 70
     0
  0
ATTDEF
  5
F8
330
23
100
AcDbEntity
  8
FORMAT
 62
     2
100
AcDbText
 10
14.71515021738103
 20
0.9155567962712114
 30
0.0
 40
0.125
  1

 41
0.85
  7
SIMPLEX
100
AcDbAttributeDefinition
  3
FINISH
  2
FINISH
 70
     0
  0
ATTDEF
  5
F9
330
23
100
AcDbEntity
  8
FORMAT
 62
     2
100
AcDbText
 10
14.71515021738103
 20
0.7155567962712115
 30
0.0
 40
0.125
  1

 41
0.85
  7
SIMPLEX
100
AcDbAttributeDefinition
  3
FINISH2
  2
FINISH2
 70
     0
  0
ATTDEF
  5
FA
330
23
100
AcDbEntity
  8
FORMAT
 62
     2
100
AcDbText
 10
13.12694409774827
 20
0.9986659573278931
 30
0.0
 40
0.125
  1

 41
0.85
  7
SIMPLEX
 72
     1
 11
13.37992028822446
 21
0.9986659573278931
 31
0.0
100
AcDbAttributeDefinition
  3
NEXT ASSY
  2
NASSY
 70
     0
  0
ATTDEF
  5
FB
330
23
100
AcDbEntity
  8
FORMAT
 62
     2
100
AcDbText
 10
14.07536522221214
 20
0.9986659573278931
 30
0.0
 40
0.125
  1

 41
0.85
  7
SIMPLEX
 72
     1
 11
14.26509736506928
 21
0.9986659573278931
 31
0.0
100
AcDbAttributeDefinition
  3
USED ON
  2
USED
 70
     0
  0
ATTDEF
  5
FC
330
23
100
AcDbEntity
  8
FORMAT
 62
     2
100
AcDbText
 10
17.79507752165776
 20
0.5860623146801624
 30
0.0
 40
0.1250000000000001
  1
NA
 41
0.602150537634406
  7
SIMPLEX
 72
     5
 11
18.12841085499109
 21
0.5860623146801624
 31
0.0
100
AcDbAttributeDefinition
  3
SCALE
  2
SCALE
 70
     0
  0
ATTDEF
  5
FD
330
23
100
AcDbEntity
  8
FORMAT
100
AcDbText
 10
17.74073947492836
 20
0.3086553961654356
 30
0.0
 40
0.125
  1

 41
0.85
  7
SIMPLEX
100
AcDbAttributeDefinition
  3
USER DEFINED SCALE
  2
TSCALE
 70
     1
  0
ENDBLK
  5
FE
330
23
100
AcDbEntity
  8
DIM
100
AcDbBlockEnd
  0
BLOCK
  5
FF
330
24
100
AcDbEntity
  8
DIM
100
AcDbBlockBegin
  2
ASCC
 70
     0
 10
0.0
 20
0.0
 30
0.0
  3
ASCC
  1

  0
TEXT
  5
100
330
24
100
AcDbEntity
  8
FORMAT
 62
     4
100
AcDbText
 10
19.69899387379536
 20
2.100623721959183
 30
0.0
 40
0.1697379484304923
  1
C
  7
SIMPLEX
100
AcDbText
  0
TEXT
  5
101
330
24
100
AcDbEntity
  8
FORMAT
 62
     4
100
AcDbText
 10
18.80615843032088
 20
2.100623721959183
 30
0.0
 40
0.1697379484304923
  1
S
  7
SIMPLEX
100
AcDbText
  0
TEXT
  5
102
330
24
100
AcDbEntity
  8
FORMAT
 62
     4
100
AcDbText
 10
18.36525203848163
 20
2.100623721959183
 30
0.0
 40
0.1697379484304923
  1
A
  7
SIMPLEX
100
AcDbText
  0
LWPOLYLINE
  5
103
330
24
100
AcDbEntity
  8
FORMAT
 62
     4
100
AcDbPolyline
 90
       19
 70
     0
 43
0.0225
 10
19.79101602058016
 20
2.564516508565729
 10
19.9471811016723
 20
2.564516508565729
 42
-0.042541012961003
 10
19.93427707031651
 20
2.523364603948482
 42
-0.0980880390053547
 10
19.88044267406175
 20
2.441986567803261
 42
-0.098887420733041
 10
19.79968447246608
 20
2.387484080120377
 42
-0.0994601882142477
 10
19.70470359272208
 20
2.368401678371224
 42
-0.0994601882142479
 10
19.60972271297807
 20
2.387484080120377
 42
-0.0988874207330409
 10
19.5289645113824
 20
2.441986567803261
 42
-0.0980880390053563
 10
19.47513011512764
 20
2.523364603948482
 42
-0.0975301783279195
 10
19.45617100045251
 20
2.619636205855822
 42
-0.0975301783279191
 10
19.47513011512764
 20
2.715907807763163
 42
-0.0980880390053544
 10
19.5289645113824
 20
2.797285843908375
 42
-0.098887420733042
 10
19.60972271297807
 20
2.851788331591259
 42
-0.0994601882142489
 10
19.70470359272208
 20
2.870870733340416
 42
-0.0994601882142465
 10
19.79968447246608
 20
2.851788331591259
 42
-0.0988874207330417
 10
19.88044267406175
 20
2.797285843908375
 42
-0.0980880390053536
 10
19.93427707031651
 20
2.715907807763163
 42
-0.0402592865168672
 10
19.94666860966087
 20
2.677011825272384
 10
19.79034116059524
 20
2.677011825272384
  0
LWPOLYLINE
  5
118
330
24
100
AcDbEntity
  8
FORMAT
 62
     4
100
AcDbPolyline
 90
       15
 70
     0
 43
0.0225
 10
19.79034116059524
 20
2.677011825272384
 42
0.0737693774696939
 10
19.77208287795118
 20
2.715187358079838
 42
0.1070726234643504
 10
19.74045725624877
 20
2.74549236989869
 42
0.1385629373943148
 10
19.70763635250983
 20
2.754765941231403
 42
0.1385629373943129
 10
19.67481544877088
 20
2.74549236989869
 42
0.1070726234643524
 10
19.64318982706847
 20
2.715187358079838
 42
0.080411952526036
 10
19.62385845307937
 20
2.673357705739745
 42
0.0682128178705473
 10
19.61649520218283
 20
2.619636205855822
 42
0.0682128178705446
 10
19.62385845307937
 20
2.565914705971899
 42
0.0804119525260329
 10
19.64318982706847
 20
2.524085053631806
 42
0.1070726234643512
 10
19.67481544877088
 20
2.493780041812946
 42
0.1385629373943108
 10
19.70763635250983
 20
2.484506470480241
 42
0.1385629373943129
 10
19.74045725624877
 20
2.493780041812946
 42
0.1070726234643522
 10
19.77208287795118
 20
2.524085053631806
 42
0.0778755225518675
 10
19.79101602058016
 20
2.564516508565729
 42
0.0682128178705442
  0
LWPOLYLINE
  5
129
330
24
100
AcDbEntity
  8
FORMAT
 62
     4
100
AcDbPolyline
 90
       54
 70
     1
 43
0.0225
 10
19.22874879330428
 20
2.479858447967232
 42
-0.0755024017736019
 10
19.20949374238956
 20
2.471727181449106
 42
-0.0622944993526393
 10
19.18440192678771
 20
2.468588838599719
 42
-0.062294499352638
 10
19.15931011118584
 20
2.471727181449102
 42
-0.0755024017736055
 10
19.14005506027112
 20
2.479858447967232
 42
-0.1070680644305852
 10
19.12584947788002
 20
2.49345831520933
 10
19.11943001764371
 20
2.505260954043771
 10
19.11407768797822
 20
2.516390169867693
 10
18.94975660934409
 20
2.516390169867693
 42
0.12773956336112
 10
18.9653642144596
 20
2.466522363166317
 42
0.1071286341531257
 10
19.01711616715792
 20
2.413244191057134
 42
0.0796427840554439
 10
19.08834239281576
 20
2.380790598978804
 42
0.0672473564417051
 10
19.18004038659054
 20
2.368401678371224
 42
0.0672473564417048
 10
19.27173838036532
 20
2.380790598978804
 42
0.0796427840554436
 10
19.34296460602315
 20
2.413244191057134
 42
0.1071286341531261
 10
19.39471655872148
 20
2.466522363166317
 42
0.1402653463278993
 10
19.41045002735118
 20
2.521503593354355
 42
0.1402653463278997
 10
19.39471655872148
 20
2.576484823542398
 42
0.1071286341531263
 10
19.34296460602315
 20
2.629762995651568
 42
0.0796427840554426
 10
19.27173838036532
 20
2.662216587729907
 42
0.0065485559639644
 10
19.26298112532647
 20
2.6645039488468
 10
19.16807639425626
 20
2.691033476160359
 42
-0.0441833850137439
 10
19.1570155353311
 20
2.693612044043077
 42
-0.0884984713819611
 10
19.14089633651767
 20
2.702290360497033
 42
-0.1051315564002679
 10
19.12958780993868
 20
2.715967420646792
 42
-0.1209321696670754
 10
19.12589712897054
 20
2.73100356149925
 42
-0.1209321696670782
 10
19.12958780993868
 20
2.746039702351708
 42
-0.105131556400268
 10
19.14089633651767
 20
2.759716762501459
 42
-0.0884984713819613
 10
19.15701553533111
 20
2.768395078955419
 42
-0.0795029035659161
 10
19.17710762680279
 20
2.771610159775717
 42
-0.0795029035659155
 10
19.19719971827447
 20
2.768395078955415
 42
-0.0884984713819621
 10
19.21331891708791
 20
2.759716762501454
 42
-0.1051315564002736
 10
19.22462744366689
 20
2.746039702351704
 42
-0.1209321696670763
 10
19.22831812463503
 20
2.73100356149925
 10
19.22831812463503
 20
2.714159342954932
 10
19.38802672464369
 20
2.714159342954932
 42
0.0038813837765437
 10
19.38804073461402
 20
2.715964080656108
 42
0.1281257538887567
 10
19.37326303509364
 20
2.772686110685867
 42
0.1062368848425489
 10
19.3268104894143
 20
2.825499625220092
 42
0.0851825190681337
 10
19.26149437945055
 20
2.858493811713419
 42
0.0745881981146657
 10
19.1789876010257
 20
2.870870733340416
 42
0.0745881981146676
 10
19.09648082260086
 20
2.858493811713419
 42
0.0851825190681361
 10
19.03116471263711
 20
2.825499625220092
 42
0.1062368848425505
 10
18.98471216695777
 20
2.772686110685867
 42
0.1281257538887568
 10
18.96993446743739
 20
2.715964080656108
 42
0.1281257538887549
 10
18.98471216695777
 20
2.659242050626354
 42
0.1062368848425481
 10
19.03116471263711
 20
2.606428536092134
 42
0.0768883211050846
 10
19.08970034473161
 20
2.575638376231284
 10
19.20373607710634
 20
2.543691105992503
 42
-0.0144806542187903
 10
19.20949374238956
 20
2.54240420204078
 42
-0.0755024017735968
 10
19.22874879330428
 20
2.53427293552265
 42
-0.1070680644305796
 10
19.24295437569539
 20
2.520673068280553
 42
-0.1495643191247967
 10
19.2471178668642
 20
2.507065691744948
 42
-0.1495643191247979
 10
19.24295437569539
 20
2.493458315209334
 42
-0.1070680644305824
  0
LWPOLYLINE
  5
161
330
24
100
AcDbEntity
  8
FORMAT
 62
     4
100
AcDbPolyline
 90
        3
 70
     1
 43
0.0225
 10
18.6039093461517
 20
2.537144653431218
 10
18.70443864776096
 20
2.537144653431218
 10
18.65417399695634
 20
2.676638356999313
  0
LWPOLYLINE
  5
166
330
24
100
AcDbEntity
  8
FORMAT
 62
     4
100
AcDbPolyline
 90
        8
 70
     1
 43
0.0225
 10
18.76524287404624
 20
2.368401678371224
 10
18.91759598507139
 20
2.368401678371224
 10
18.7365381240918
 20
2.870870733340416
 10
18.57180986982086
 20
2.870870733340416
 10
18.39075200884127
 20
2.368401678371224
 10
18.54310511986643
 20
2.368401678371224
 10
18.56608283104731
 20
2.432169077146123
 10
18.74226516286535
 20
2.432169077146123
  0
LWPOLYLINE
  5
170
330
24
100
AcDbEntity
  8
FORMAT
 62
     4
100
AcDbPolyline
 90
        2
 70
     0
 43
0.012
 10
18.35661167695311
 20
1.940378053575556
 10
21.02094497253683
 20
1.940378053575556
  0
LWPOLYLINE
  5
174
330
24
100
AcDbEntity
  8
FORMAT
 62
     4
100
AcDbPolyline
 90
        2
 70
     0
 43
0.012
 10
18.35661167695311
 20
1.997828870396346
 10
21.02094497253683
 20
1.997828870396346
  0
TEXT
  5
178
330
24
100
AcDbEntity
  8
FORMAT
 62
     4
100
AcDbText
 10
18.40383134776757
 20
2.100623721959183
 30
0.0
 40
0.1697379484304923
  1
 ir  ystem  omponents
 41
0.85
  7
SIMPLEX
100
AcDbText
  0
TEXT
  5
179
330
24
100
AcDbEntity
  8
FORMAT
 62
     5
100
AcDbText
 10
12.99642138255451
 20
2.856042785463923
 30
0.0
 40
0.05
  1
THIS DOCUMENT AND ITS CONTENTS REMAIN THE EXCLUSIVE PROPERTY OF AIR SYSTEM COMPONENTS NO REPRODUCTION, USE OR DISCLOSURE OF THIS
 41
0.7942241634313455
  7
SIMPLEX
 72
     5
 11
17.69936303601584
 21
2.856042785463923
 31
0.0
100
AcDbText
  0
TEXT
  5
17A
330
24
100
AcDbEntity
  8
FORMAT
 62
     5
100
AcDbText
 10
12.99642138255451
 20
2.753102222866186
 30
0.0
 40
0.05
  1
DOCUMENT OR ITS CONTENTS IS AUTHORIZED WITHOUT THE WRITTEN CONSENT OF A DULY AUTHORIZED REPRESENTATIVE OF AIR SYSTEM COMPONENTS
 41
0.7987203778624158
  7
SIMPLEX
 72
     5
 11
17.69936303601584
 21
2.753102222866186
 31
0.0
100
AcDbText
  0
ENDBLK
  5
17B
330
24
100
AcDbEntity
  8
DIM
100
AcDbBlockEnd
  0
BLOCK
  5
17C
330
25
100
AcDbEntity
  8
OBJ2
100
AcDbBlockBegin
  2
ECO-C
 70
     2
 10
0.0
 20
0.0
 30
0.0
  3
ECO-C
  1

  0
ATTDEF
  5
17D
330
25
100
AcDbEntity
  8
TEXT
100
AcDbText
 10
0.043147705208335
 20
0.0416666666666679
 30
0.0
 40
0.125
  1
A
  7
SIMPLEX
 72
     1
 11
0.2098143718750016
 21
0.0416666666666679
 31
0.0
100
AcDbAttributeDefinition
  3
REV LETTER
  2
SYM
 70
     0
  0
ATTDEF
  5
17E
330
25
100
AcDbEntity
  8
TEXT
100
AcDbText
 10
0.961267183630955
 20
0.0416666666666679
 30
0.0
 40
0.125
  1
?
  7
SIMPLEX
 72
     1
 11
1.258886231250002
 21
0.0416666666666679
 31
0.0
100
AcDbAttributeDefinition
  3
ECO NUMBER
  2
ECONO
 70
     0
  0
ATTDEF
  5
17F
330
25
100
AcDbEntity
  8
TEXT
100
AcDbText
 10
2.218808197800004
 20
0.0462164199485429
 30
0.0
 40
0.125
  1
?
 41
1.133007568032638
  7
SIMPLEX
 72
     5
 11
2.468339626473859
 21
0.0462164199485429
 31
0.0
100
AcDbAttributeDefinition
  3

  2
BY
 70
     0
  0
ATTDEF
  5
180
330
25
100
AcDbEntity
  8
TEXT
100
AcDbText
 10
2.57067388701089
 20
0.0462164199485429
 30
0.0
 40
0.125
  1
?
 41
0.8135135135135156
  7
SIMPLEX
 72
     5
 11
2.929007220344225
 21
0.0462164199485429
 31
0.0
100
AcDbAttributeDefinition
  3

  2
DATE
 70
     0
  0
ATTDEF
  5
181
330
25
100
AcDbEntity
  8
TEXT
100
AcDbText
 10
3.015950761156421
 20
0.0462164199485429
 30
0.0
 40
0.125
  1

 41
0.5095273479460434
  7
SIMPLEX
 72
     5
 11
3.31317504745828
 21
0.0462164199485429
 31
0.0
100
AcDbAttributeDefinition
  3
APPROVED BY
  2
APPVD
 70
     0
  0
ENDBLK
  5
182
330
25
100
AcDbEntity
  8
OBJ2
100
AcDbBlockEnd
  0
BLOCK
  5
183
330
26
100
AcDbEntity
  8
OBJ2
100
AcDbBlockBegin
  2
*X4
 70
     1
 10
0.0
 20
0.0
 30
0.0
  3
*X4
  1

  0
LINE
  5
184
330
26
100
AcDbEntity
  8
0
 62
     0
100
AcDbLine
 10
35.00137495007684
 20
15.48522778932812
 30
0.0
 11
35.12537495007686
 21
15.60922778932814
 31
0.0
  0
LINE
  5
185
330
26
100
AcDbEntity
  8
0
 62
     0
100
AcDbLine
 10
35.00137495007684
 20
15.62664914556544
 30
0.0
 11
35.12537495007686
 21
15.75064914556545
 31
0.0
  0
LINE
  5
186
330
26
100
AcDbEntity
  8
0
 62
     0
100
AcDbLine
 10
35.00137495007684
 20
15.76807050180274
 30
0.0
 11
35.12537495007686
 21
15.89207050180276
 31
0.0
  0
LINE
  5
187
330
26
100
AcDbEntity
  8
0
 62
     0
100
AcDbLine
 10
35.00137495007684
 20
15.90949185804005
 30
0.0
 11
35.12537495007685
 21
16.03349185804006
 31
0.0
  0
LINE
  5
188
330
26
100
AcDbEntity
  8
0
 62
     0
100
AcDbLine
 10
35.00137495007684
 20
16.05091321427736
 30
0.0
 11
35.12537495007685
 21
16.17491321427737
 31
0.0
  0
LINE
  5
189
330
26
100
AcDbEntity
  8
0
 62
     0
100
AcDbLine
 10
35.00137495007685
 20
16.19233457051467
 30
0.0
 11
35.12537495007685
 21
16.31633457051468
 31
0.0
  0
LINE
  5
18A
330
26
100
AcDbEntity
  8
0
 62
     0
100
AcDbLine
 10
35.00137495007685
 20
16.33375592675199
 30
0.0
 11
35.12537495007685
 21
16.45775592675199
 31
0.0
  0
LINE
  5
18B
330
26
100
AcDbEntity
  8
0
 62
     0
100
AcDbLine
 10
35.26287513315348
 20
16.59525610982862
 30
0.0
 11
35.37537495007684
 21
16.70775592675199
 31
0.0
  0
LINE
  5
18C
330
26
100
AcDbEntity
  8
0
 62
     0
100
AcDbLine
 10
35.00137495007685
 20
16.4751772829893
 30
0.0
 11
35.12537495007684
 21
16.5991772829893
 31
0.0
  0
LINE
  5
18D
330
26
100
AcDbEntity
  8
0
 62
     0
100
AcDbLine
 10
35.24261498002553
 20
16.71641731293799
 30
0.0
 11
35.36613297064809
 21
16.83993530356054
 31
0.0
  0
LINE
  5
18E
330
26
100
AcDbEntity
  8
0
 62
     0
100
AcDbLine
 10
35.00137495007685
 20
16.6165986392266
 30
0.0
 11
35.23293830243165
 21
16.84816199158141
 31
0.0
  0
LINE
  5
18F
330
26
100
AcDbEntity
  8
0
 62
     0
100
AcDbLine
 10
34.72828138685928
 20
16.48492643224635
 30
0.0
 11
34.75061050941191
 21
16.50725555479898
 31
0.0
  0
LINE
  5
190
330
26
100
AcDbEntity
  8
0
 62
     0
100
AcDbLine
 10
34.96751694619433
 20
16.7241619915814
 30
0.0
 11
35.09151694619434
 21
16.84816199158141
 31
0.0
  0
LINE
  5
191
330
26
100
AcDbEntity
  8
0
 62
     0
100
AcDbLine
 10
34.62737495007685
 20
16.52544135170123
 30
0.0
 11
34.75137495007685
 21
16.64944135170123
 31
0.0
  0
LINE
  5
192
330
26
100
AcDbEntity
  8
0
 62
     0
100
AcDbLine
 10
34.82609558995703
 20
16.72416199158141
 30
0.0
 11
34.95009558995703
 21
16.84816199158141
 31
0.0
  0
LINE
  5
193
330
26
100
AcDbEntity
  8
0
 62
     0
100
AcDbLine
 10
34.62737495007685
 20
16.66686270793854
 30
0.0
 11
34.80867423371972
 21
16.84816199158141
 31
0.0
  0
LINE
  5
194
330
26
100
AcDbEntity
  8
0
 62
     0
100
AcDbLine
 10
34.62737495007685
 20
16.80828406417585
 30
0.0
 11
34.66725287748241
 21
16.84816199158141
 31
0.0
  0
LINE
  5
195
330
26
100
AcDbEntity
  8
0
 62
     0
100
AcDbLine
 10
35.00137495007684
 20
15.34380643309081
 30
0.0
 11
35.1375219415514
 21
15.47995342456537
 31
0.0
  0
LINE
  5
196
330
26
100
AcDbEntity
  8
0
 62
     0
100
AcDbLine
 10
35.00137495007684
 20
15.2023850768535
 30
0.0
 11
35.12616400924592
 21
15.32717413602259
 31
0.0
  0
LINE
  5
197
330
26
100
AcDbEntity
  8
0
 62
     0
100
AcDbLine
 10
35.14836280563567
 20
15.34937293241233
 30
0.0
 11
35.37537495007684
 21
15.57638507685351
 31
0.0
  0
LINE
  5
198
330
26
100
AcDbEntity
  8
0
 62
     0
100
AcDbLine
 10
34.62737495007685
 20
14.68696372061621
 30
0.0
 11
34.66757322104206
 21
14.72716199158141
 31
0.0
  0
LINE
  5
199
330
26
100
AcDbEntity
  8
0
 62
     0
100
AcDbLine
 10
35.25237495007684
 20
15.3119637206162
 30
0.0
 11
35.37537495007684
 21
15.4349637206162
 31
0.0
  0
LINE
  5
19A
330
26
100
AcDbEntity
  8
0
 62
     0
100
AcDbLine
 10
35.00137495007684
 20
15.06096372061619
 30
0.0
 11
35.12537495007684
 21
15.1849637206162
 31
0.0
  0
LINE
  5
19B
330
26
100
AcDbEntity
  8
0
 62
     0
100
AcDbLine
 10
33.62737495007685
 20
13.5455423643789
 30
0.0
 11
33.68699457727937
 21
13.60516199158142
 31
0.0
  0
LINE
  5
19C
330
26
100
AcDbEntity
  8
0
 62
     0
100
AcDbLine
 10
35.29599457727936
 20
15.2141619915814
 30
0.0
 11
35.37537495007685
 21
15.2935423643789
 31
0.0
  0
LINE
  5
19D
330
26
100
AcDbEntity
  8
0
 62
     0
100
AcDbLine
 10
34.62737495007685
 20
14.5455423643789
 30
0.0
 11
34.75137495007685
 21
14.6695423643789
 31
0.0
  0
LINE
  5
19E
330
26
100
AcDbEntity
  8
0
 62
     0
100
AcDbLine
 10
35.00137495007684
 20
14.91954236437888
 30
0.0
 11
35.12537495007684
 21
15.04354236437889
 31
0.0
  0
LINE
  5
19F
330
26
100
AcDbEntity
  8
0
 62
     0
100
AcDbLine
 10
33.70441593351668
 20
13.48116199158141
 30
0.0
 11
33.82841593351668
 21
13.60516199158141
 31
0.0
  0
LINE
  5
1A0
330
26
100
AcDbEntity
  8
0
 62
     0
100
AcDbLine
 10
35.00137495007683
 20
14.77812100814157
 30
0.0
 11
35.12537495007684
 21
14.90212100814158
 31
0.0
  0
LINE
  5
1A1
330
26
100
AcDbEntity
  8
0
 62
     0
100
AcDbLine
 10
34.62737495007685
 20
14.40412100814158
 30
0.0
 11
34.75137495007686
 21
14.52812100814159
 31
0.0
  0
LINE
  5
1A2
330
26
100
AcDbEntity
  8
0
 62
     0
100
AcDbLine
 10
33.84583728975399
 20
13.48116199158141
 30
0.0
 11
33.96983728975399
 21
13.60516199158141
 31
0.0
  0
LINE
  5
1A3
330
26
100
AcDbEntity
  8
0
 62
     0
100
AcDbLine
 10
35.00137495007683
 20
14.63669965190426
 30
0.0
 11
35.12537495007684
 21
14.76069965190427
 31
0.0
  0
LINE
  5
1A4
330
26
100
AcDbEntity
  8
0
 62
     0
100
AcDbLine
 10
34.62737495007685
 20
14.26269965190427
 30
0.0
 11
34.75137495007686
 21
14.38669965190429
 31
0.0
  0
LINE
  5
1A5
330
26
100
AcDbEntity
  8
0
 62
     0
100
AcDbLine
 10
33.9872586459913
 20
13.48116199158141
 30
0.0
 11
34.1112586459913
 21
13.60516199158141
 31
0.0
  0
LINE
  5
1A6
330
26
100
AcDbEntity
  8
0
 62
     0
100
AcDbLine
 10
35.00137495007683
 20
14.49527829566695
 30
0.0
 11
35.12537495007684
 21
14.61927829566696
 31
0.0
  0
LINE
  5
1A7
330
26
100
AcDbEntity
  8
0
 62
     0
100
AcDbLine
 10
34.62737495007684
 20
14.12127829566696
 30
0.0
 11
34.75137495007687
 21
14.24527829566699
 31
0.0
  0
LINE
  5
1A8
330
26
100
AcDbEntity
  8
0
 62
     0
100
AcDbLine
 10
34.12868000222861
 20
13.48116199158141
 30
0.0
 11
34.2526800022286
 21
13.60516199158141
 31
0.0
  0
LINE
  5
1A9
330
26
100
AcDbEntity
  8
0
 62
     0
100
AcDbLine
 10
35.00137495007683
 20
14.35385693942964
 30
0.0
 11
35.12537495007684
 21
14.47785693942965
 31
0.0
  0
LINE
  5
1AA
330
26
100
AcDbEntity
  8
0
 62
     0
100
AcDbLine
 10
34.62737495007684
 20
13.97985693942965
 30
0.0
 11
34.75839487479611
 21
14.11087686414892
 31
0.0
  0
LINE
  5
1AB
330
26
100
AcDbEntity
  8
0
 62
     0
100
AcDbLine
 10
34.27010135846592
 20
13.48116199158141
 30
0.0
 11
34.88910135846591
 21
14.10016199158141
 31
0.0
  0
LINE
  5
1AC
330
26
100
AcDbEntity
  8
0
 62
     0
100
AcDbLine
 10
35.00137495007683
 20
14.21243558319233
 30
0.0
 11
35.12537495007684
 21
14.33643558319234
 31
0.0
  0
LINE
  5
1AD
330
26
100
AcDbEntity
  8
0
 62
     0
100
AcDbLine
 10
34.41152271470323
 20
13.48116199158141
 30
0.0
 11
34.75137495007685
 21
13.82101422695503
 31
0.0
  0
LINE
  5
1AE
330
26
100
AcDbEntity
  8
0
 62
     0
100
AcDbLine
 10
34.90552271470323
 20
13.97516199158141
 30
0.0
 11
35.12537495007684
 21
14.19501422695503
 31
0.0
  0
LINE
  5
1AF
330
26
100
AcDbEntity
  8
0
 62
     0
100
AcDbLine
 10
34.55294407094054
 20
13.48116199158141
 30
0.0
 11
34.67694407094053
 21
13.60516199158141
 31
0.0
  0
LINE
  5
1B0
330
26
100
AcDbEntity
  8
0
 62
     0
100
AcDbLine
 10
35.25237495007685
 20
14.18059287071772
 30
0.0
 11
35.30794407094053
 21
14.23616199158141
 31
0.0
  0
LINE
  5
1B1
330
26
100
AcDbEntity
  8
0
 62
     0
100
AcDbLine
 10
35.04694407094054
 20
13.97516199158141
 30
0.0
 11
35.17194407094053
 21
14.10016199158141
 31
0.0
  0
LINE
  5
1B2
330
26
100
AcDbEntity
  8
0
 62
     0
100
AcDbLine
 10
34.69436542717785
 20
13.48116199158141
 30
0.0
 11
34.81836542717784
 21
13.60516199158141
 31
0.0
  0
LINE
  5
1B3
330
26
100
AcDbEntity
  8
0
 62
     0
100
AcDbLine
 10
35.18836542717785
 20
13.97516199158141
 30
0.0
 11
35.37537495007686
 21
14.16217151448043
 31
0.0
  0
LINE
  5
1B4
330
26
100
AcDbEntity
  8
0
 62
     0
100
AcDbLine
 10
34.83578678341515
 20
13.48116199158141
 30
0.0
 11
34.95978678341515
 21
13.60516199158141
 31
0.0
  0
LINE
  5
1B5
330
26
100
AcDbEntity
  8
0
 62
     0
100
AcDbLine
 10
34.97720813965246
 20
13.48116199158141
 30
0.0
 11
35.10120813965246
 21
13.60516199158141
 31
0.0
  0
LINE
  5
1B6
330
26
100
AcDbEntity
  8
0
 62
     0
100
AcDbLine
 10
35.13137495007685
 20
13.63532880200579
 30
0.0
 11
35.22679134336735
 21
13.7307451952963
 31
0.0
  0
LINE
  5
1B7
330
26
100
AcDbEntity
  8
0
 62
     0
100
AcDbLine
 10
35.11862949588977
 20
13.48116199158141
 30
0.0
 11
35.25876887552852
 21
13.62130137122016
 31
0.0
  0
LINE
  5
1B8
330
26
100
AcDbEntity
  8
0
 62
     0
100
AcDbLine
 10
35.26005085212708
 20
13.48116199158141
 30
0.0
 11
35.38405085212708
 21
13.60516199158142
 31
0.0
  0
LINE
  5
1B9
330
26
100
AcDbEntity
  8
0
 62
     0
100
AcDbLine
 10
35.40147220836439
 20
13.48116199158141
 30
0.0
 11
35.52547220836439
 21
13.60516199158142
 31
0.0
  0
LINE
  5
1BA
330
26
100
AcDbEntity
  8
0
 62
     0
100
AcDbLine
 10
35.5428935646017
 20
13.48116199158141
 30
0.0
 11
35.6668935646017
 21
13.60516199158141
 31
0.0
  0
LINE
  5
1BB
330
26
100
AcDbEntity
  8
0
 62
     0
100
AcDbLine
 10
35.68431492083901
 20
13.48116199158141
 30
0.0
 11
35.75237495007685
 21
13.54922202081926
 31
0.0
  0
ENDBLK
  5
1BC
330
26
100
AcDbEntity
  8
OBJ2
100
AcDbBlockEnd
  0
BLOCK
  5
1BD
330
27
100
AcDbEntity
  8
OBJ
100
AcDbBlockBegin
  2
4046
 70
     0
 10
0.0
 20
0.0
 30
0.0
  3
4046
  1

  0
LWPOLYLINE
  5
1BE
330
27
100
AcDbEntity
  8
OBJ
 62
     7
100
AcDbPolyline
 90
       66
 70
     1
 43
0.0
 10
0.0420485436467431
 20
1.52414854360616
 10
0.0420485436467506
 20
0.2420485436061601
 42
0.4142135623730988
 10
0.0570485436467512
 20
0.22704854360616
 10
0.1520485436467243
 20
0.2270485436061613
 42
0.4142135623730693
 10
0.1670485436467239
 20
0.2420485436061606
 10
0.167048543646743
 20
0.5255485436061758
 42
-0.4142135623730951
 10
0.1820485436467436
 20
0.5405485436061764
 10
0.2140485436467401
 20
0.5405485436061755
 42
-0.4142135623730951
 10
0.2290485436467406
 20
0.5255485436061767
 10
0.2290485436467406
 20
0.1806735436061633
 42
-0.4142135623730951
 10
0.2134235436467406
 20
0.1650485436061633
 10
0.0576735436467431
 20
0.1650485436061642
 42
0.4142135623730951
 10
0.0420485436467431
 20
0.1494235436061642
 10
0.0420485436467431
 20
0.0742018713853723
 42
0.1989123673796584
 10
0.0466250001907014
 20
0.0631533279293324
 10
0.1253363862316661
 20
-0.015558058111635
 42
0.1989123673796599
 10
0.1359429879494698
 20
-0.0199514563938363
 10
0.7140485436467455
 20
-0.0199514563938372
 42
-0.4142135623730777
 10
0.729048543646746
 20
-0.0349514563938369
 10
0.729048543646746
 20
-0.0669514563938369
 42
-0.4142135623730951
 10
0.7140485436467455
 20
-0.0819514563938375
 10
0.1105206305588169
 20
-0.0819514563938375
 42
-0.1989123673796571
 10
0.0994720871027752
 20
-0.0773749998498774
 10
0.0220970868889978
 20
-0.0000000000000009
 42
0.4142135617611641
 10
0.0
 20
0.0
 10
-0.0773749998092885
 20
-0.0773749998498774
 42
-0.1989123673796571
 10
-0.0884235432653302
 20
-0.0819514563938375
 10
-0.6919514563532605
 20
-0.0819514563938375
 42
-0.4142135623730951
 10
-0.7069514563532611
 20
-0.0669514563938369
 10
-0.7069514563532611
 20
-0.0349514563938369
 42
-0.4142135623730605
 10
-0.6919514563532605
 20
-0.0199514563938372
 10
-0.1138459006559795
 20
-0.0199514563938363
 42
0.1989123673796559
 10
-0.1032392989381829
 20
-0.015558058111635
 10
-0.0245279128972147
 20
0.0631533279293324
 42
0.1989123673796599
 10
-0.0199514563532528
 20
0.0742018713853723
 10
-0.0199514563532528
 20
0.1494235436061642
 42
0.4142135623730951
 10
-0.0355764563532528
 20
0.1650485436061642
 10
-0.1913264563532539
 20
0.165048543606165
 42
-0.4142135623730951
 10
-0.206951456353254
 20
0.180673543606165
 10
-0.2069514563532504
 20
0.5255485436061758
 42
-0.4142135623730777
 10
-0.1919514563532534
 20
0.5405485436061755
 10
-0.1599514563532534
 20
0.5405485436061764
 42
-0.4142135623730951
 10
-0.1449514563532528
 20
0.5255485436061758
 10
-0.144951456353231
 20
0.2420485436061597
 42
0.4142135623730673
 10
-0.1299514563532313
 20
0.2270485436061609
 10
-0.0349514563532605
 20
0.2270485436061596
 42
0.4142135623730977
 10
-0.0199514563532604
 20
0.2420485436061597
 10
-0.0199514563532564
 20
1.52414854360616
 42
0.4142135623730951
 10
-0.0348514563532536
 20
1.539048543606159
 10
-0.1300514563532555
 20
1.539048543606161
 42
0.4142135623730951
 10
-0.1449514563532563
 20
1.52414854360616
 10
-0.1449514563532563
 20
1.42894854360616
 42
-0.4142135623730951
 10
-0.1598514563532536
 20
1.414048543606161
 10
-0.1920514563532531
 20
1.414048543606161
 42
-0.4142135623730951
 10
-0.206951456353254
 20
1.42894854360616
 10
-0.2069514563532504
 20
1.58614854360616
 42
-0.4142135623730951
 10
-0.1920514563532531
 20
1.601048543606161
 10
0.2141485436467363
 20
1.601048543606161
 42
-0.4142135623730951
 10
0.2290485436467371
 20
1.58614854360616
 10
0.2290485436467406
 20
1.42894854360616
 42
-0.4142135623730951
 10
0.2141485436467398
 20
1.414048543606161
 10
0.1819485436467403
 20
1.414048543606161
 42
-0.4142135623730951
 10
0.167048543646743
 20
1.42894854360616
 10
0.167048543646743
 20
1.52414854360616
 42
0.4142135623730951
 10
0.1521485436467422
 20
1.539048543606161
 10
0.0569485436467403
 20
1.539048543606159
 42
0.4142135623730951
  0
ENDBLK
  5
202
330
27
100
AcDbEntity
  8
OBJ
100
AcDbBlockEnd
  0
BLOCK
  5
203
330
28
100
AcDbEntity
  8
OBJ
100
AcDbBlockBegin
  2
*D6
 70
     1
 10
0.0
 20
0.0
 30
0.0
  3
*D6
  1

  0
LINE
  5
204
330
28
100
AcDbEntity
  8
0
  6
ByBlock
 62
     0
100
AcDbLine
 10
16.1014620827417
 20
14.1765809957907
 30
0.0
 11
16.1014620827417
 21
14.59999999999999
 31
0.0
  0
LINE
  5
205
330
28
100
AcDbEntity
  8
0
  6
ByBlock
 62
     0
100
AcDbLine
 10
15.10146208274171
 20
14.15172067585062
 30
0.0
 11
15.10146208274171
 21
14.59999999999999
 31
0.0
  0
LINE
  5
206
330
28
100
AcDbEntity
  8
0
  6
ByBlock
 62
     0
100
AcDbLine
 10
14.92146208274171
 20
14.42
 30
0.0
 11
14.74146208274171
 21
14.42
 31
0.0
  0
LINE
  5
207
330
28
100
AcDbEntity
  8
0
  6
ByBlock
 62
     0
100
AcDbLine
 10
16.2814620827417
 20
14.42
 30
0.0
 11
16.4614620827417
 21
14.42
 31
0.0
  0
SOLID
  5
208
330
28
100
AcDbEntity
  8
0
  6
ByBlock
 62
     0
100
AcDbTrace
 10
14.92146208274171
 20
14.39
 30
0.0
 11
14.92146208274171
 21
14.45
 31
0.0
 12
15.10146208274171
 22
14.42
 32
0.0
 13
15.10146208274171
 23
14.42
 33
0.0
  0
SOLID
  5
209
330
28
100
AcDbEntity
  8
0
  6
ByBlock
 62
     0
100
AcDbTrace
 10
16.2814620827417
 20
14.39
 30
0.0
 11
16.2814620827417
 21
14.45
 31
0.0
 12
16.1014620827417
 22
14.42
 32
0.0
 13
16.1014620827417
 23
14.42
 33
0.0
  0
TEXT
  5
20A
330
28
100
AcDbEntity
  8
0
  6
ByBlock
 62
     0
100
AcDbText
 10
15.38717636845599
 20
14.345
 30
0.0
 40
0.15
  1
1.00
  7
SIMPLEX
100
AcDbText
  0
POINT
  5
20B
330
28
100
AcDbEntity
  8
DEFPOINTS
  6
ByBlock
 62
     0
100
AcDbPoint
 10
16.1014620827417
 20
14.0515809957907
 30
0.0
  0
POINT
  5
20C
330
28
100
AcDbEntity
  8
DEFPOINTS
  6
ByBlock
 62
     0
100
AcDbPoint
 10
15.10146208274171
 20
14.02672067585062
 30
0.0
  0
POINT
  5
20D
330
28
100
AcDbEntity
  8
DEFPOINTS
  6
ByBlock
 62
     0
100
AcDbPoint
 10
15.10146208274171
 20
14.42
 30
0.0
  0
ENDBLK
  5
20E
330
28
100
AcDbEntity
  8
OBJ
100
AcDbBlockEnd
  0
BLOCK
  5
20F
330
29
100
AcDbEntity
  8
OBJ
100
AcDbBlockBegin
  2
*D7
 70
     1
 10
0.0
 20
0.0
 30
0.0
  3
*D7
  1

  0
LINE
  5
210
330
29
100
AcDbEntity
  8
0
  6
ByBlock
 62
     0
100
AcDbLine
 10
3.828687475038501
 20
14.18758099579071
 30
0.0
 11
3.828687475038501
 21
14.535
 31
0.0
  0
LINE
  5
211
330
29
100
AcDbEntity
  8
0
  6
ByBlock
 62
     0
100
AcDbLine
 10
2.82868747503843
 20
14.18758099579071
 30
0.0
 11
2.82868747503843
 21
14.535
 31
0.0
  0
LINE
  5
212
330
29
100
AcDbEntity
  8
0
  6
ByBlock
 62
     0
100
AcDbLine
 10
2.64868747503843
 20
14.355
 30
0.0
 11
2.46868747503843
 21
14.355
 31
0.0
  0
LINE
  5
213
330
29
100
AcDbEntity
  8
0
  6
ByBlock
 62
     0
100
AcDbLine
 10
4.008687475038501
 20
14.355
 30
0.0
 11
4.188687475038501
 21
14.355
 31
0.0
  0
SOLID
  5
214
330
29
100
AcDbEntity
  8
0
  6
ByBlock
 62
     0
100
AcDbTrace
 10
2.64868747503843
 20
14.325
 30
0.0
 11
2.64868747503843
 21
14.385
 31
0.0
 12
2.82868747503843
 22
14.355
 32
0.0
 13
2.82868747503843
 23
14.355
 33
0.0
  0
SOLID
  5
215
330
29
100
AcDbEntity
  8
0
  6
ByBlock
 62
     0
100
AcDbTrace
 10
4.008687475038501
 20
14.325
 30
0.0
 11
4.008687475038501
 21
14.385
 31
0.0
 12
3.828687475038501
 22
14.355
 32
0.0
 13
3.828687475038501
 23
14.355
 33
0.0
  0
TEXT
  5
216
330
29
100
AcDbEntity
  8
0
  6
ByBlock
 62
     0
100
AcDbText
 10
3.114401760752751
 20
14.28
 30
0.0
 40
0.15
  1
1.00
  7
SIMPLEX
100
AcDbText
  0
POINT
  5
217
330
29
100
AcDbEntity
  8
DEFPOINTS
  6
ByBlock
 62
     0
100
AcDbPoint
 10
3.828687475038501
 20
14.06258099579071
 30
0.0
  0
POINT
  5
218
330
29
100
AcDbEntity
  8
DEFPOINTS
  6
ByBlock
 62
     0
100
AcDbPoint
 10
2.82868747503843
 20
14.06258099579071
 30
0.0
  0
POINT
  5
219
330
29
100
AcDbEntity
  8
DEFPOINTS
  6
ByBlock
 62
     0
100
AcDbPoint
 10
2.82868747503843
 20
14.355
 30
0.0
  0
ENDBLK
  5
21A
330
29
100
AcDbEntity
  8
OBJ
100
AcDbBlockEnd
  0
BLOCK
  5
21B
330
2A
100
AcDbEntity
  8
OBJ2
100
AcDbBlockBegin
  2
*X8
 70
     1
 10
0.0
 20
0.0
 30
0.0
  3
*X8
  1

  0
LINE
  5
21C
330
2A
100
AcDbEntity
  8
0
 62
     0
100
AcDbLine
 10
5.052133639948352
 20
14.60543487703767
 30
0.0
 11
5.018987521195305
 21
14.63858099579072
 31
0.0
  0
LINE
  5
21D
330
2A
100
AcDbEntity
  8
0
 62
     0
100
AcDbLine
 10
4.86513363994836
 20
14.79243487703766
 30
0.0
 11
4.803133639948352
 21
14.85443487703767
 31
0.0
  0
LINE
  5
21E
330
2A
100
AcDbEntity
  8
0
 62
     0
100
AcDbLine
 10
4.865133639948359
 20
14.86314555515631
 30
0.0
 11
4.803133639948352
 21
14.92514555515632
 31
0.0
  0
LINE
  5
21F
330
2A
100
AcDbEntity
  8
0
 62
     0
100
AcDbLine
 10
4.865133639948359
 20
14.93385623327497
 30
0.0
 11
4.803133639948352
 21
14.99585623327498
 31
0.0
  0
LINE
  5
220
330
2A
100
AcDbEntity
  8
0
 62
     0
100
AcDbLine
 10
4.865133639948358
 20
15.00456691139363
 30
0.0
 11
4.803133639948353
 21
15.06656691139363
 31
0.0
  0
LINE
  5
221
330
2A
100
AcDbEntity
  8
0
 62
     0
100
AcDbLine
 10
4.865133639948358
 20
15.07527758951228
 30
0.0
 11
4.803133639948353
 21
15.13727758951229
 31
0.0
  0
LINE
  5
222
330
2A
100
AcDbEntity
  8
0
 62
     0
100
AcDbLine
 10
4.865133639948357
 20
15.14598826763094
 30
0.0
 11
4.803133639948353
 21
15.20798826763094
 31
0.0
  0
LINE
  5
223
330
2A
100
AcDbEntity
  8
0
 62
     0
100
AcDbLine
 10
4.865133639948357
 20
15.21669894574959
 30
0.0
 11
4.803133639948354
 21
15.27869894574959
 31
0.0
  0
LINE
  5
224
330
2A
100
AcDbEntity
  8
0
 62
     0
100
AcDbLine
 10
4.865133639948356
 20
15.28740962386825
 30
0.0
 11
4.803133639948354
 21
15.34940962386825
 31
0.0
  0
LINE
  5
225
330
2A
100
AcDbEntity
  8
0
 62
     0
100
AcDbLine
 10
4.640462268025902
 20
15.5120809957907
 30
0.0
 11
4.616133639948357
 21
15.53640962386825
 31
0.0
  0
LINE
  5
226
330
2A
100
AcDbEntity
  8
0
 62
     0
100
AcDbLine
 10
4.865133639948356
 20
15.3581203019869
 30
0.0
 11
4.803133639948354
 21
15.42012030198691
 31
0.0
  0
LINE
  5
227
330
2A
100
AcDbEntity
  8
0
 62
     0
100
AcDbLine
 10
4.678133639948355
 20
15.5451203019869
 30
0.0
 11
4.616133639948359
 21
15.6071203019869
 31
0.0
  0
LINE
  5
228
330
2A
100
AcDbEntity
  8
0
 62
     0
100
AcDbLine
 10
4.865133639948355
 20
15.42883098010556
 30
0.0
 11
4.803133639948354
 21
15.49083098010556
 31
0.0
  0
LINE
  5
229
330
2A
100
AcDbEntity
  8
0
 62
     0
100
AcDbLine
 10
4.678133639948355
 20
15.61583098010556
 30
0.0
 11
4.616133639948361
 21
15.67783098010555
 31
0.0
  0
LINE
  5
22A
330
2A
100
AcDbEntity
  8
0
 62
     0
100
AcDbLine
 10
4.865133639948355
 20
15.49954165822421
 30
0.0
 11
4.803133639948355
 21
15.56154165822421
 31
0.0
  0
LINE
  5
22B
330
2A
100
AcDbEntity
  8
0
 62
     0
100
AcDbLine
 10
4.727594302381867
 20
15.6370809957907
 30
0.0
 11
4.665594302381866
 21
15.6990809957907
 31
0.0
  0
LINE
  5
22C
330
2A
100
AcDbEntity
  8
0
 62
     0
100
AcDbLine
 10
4.865133639948354
 20
15.57025233634287
 30
0.0
 11
4.736304980500519
 21
15.6990809957907
 31
0.0
  0
LINE
  5
22D
330
2A
100
AcDbEntity
  8
0
 62
     0
100
AcDbLine
 10
4.871619096050387
 20
15.63447755835949
 30
0.0
 11
4.807015658619175
 21
15.6990809957907
 31
0.0
  0
LINE
  5
22E
330
2A
100
AcDbEntity
  8
0
 62
     0
100
AcDbLine
 10
5.05197753218129
 20
15.52482980034724
 30
0.0
 11
4.990133639948354
 21
15.58667369258018
 31
0.0
  0
LINE
  5
22F
330
2A
100
AcDbEntity
  8
0
 62
     0
100
AcDbLine
 10
4.939726336737831
 20
15.6370809957907
 30
0.0
 11
4.877726336737831
 21
15.6990809957907
 31
0.0
  0
LINE
  5
230
330
2A
100
AcDbEntity
  8
0
 62
     0
100
AcDbLine
 10
5.05213363994835
 20
15.59538437069884
 30
0.0
 11
4.948437014856484
 21
15.6990809957907
 31
0.0
  0
LINE
  5
231
330
2A
100
AcDbEntity
  8
0
 62
     0
100
AcDbLine
 10
5.052133639948348
 20
15.66609504881749
 30
0.0
 11
5.01914769297514
 21
15.6990809957907
 31
0.0
  0
LINE
  5
232
330
2A
100
AcDbEntity
  8
0
 62
     0
100
AcDbLine
 10
5.552133639948357
 20
14.03472419891901
 30
0.0
 11
5.508776843076664
 21
14.0780809957907
 31
0.0
  0
LINE
  5
233
330
2A
100
AcDbEntity
  8
0
 62
     0
100
AcDbLine
 10
4.86513363994836
 20
14.721724198919
 30
0.0
 11
4.803133639948352
 21
14.78372419891901
 31
0.0
  0
LINE
  5
234
330
2A
100
AcDbEntity
  8
0
 62
     0
100
AcDbLine
 10
5.052133639948352
 20
14.53472419891901
 30
0.0
 11
4.990133639948353
 21
14.59672419891901
 31
0.0
  0
LINE
  5
235
330
2A
100
AcDbEntity
  8
0
 62
     0
100
AcDbLine
 10
5.500066164958012
 20
14.0160809957907
 30
0.0
 11
5.43806616495801
 21
14.0780809957907
 31
0.0
  0
LINE
  5
236
330
2A
100
AcDbEntity
  8
0
 62
     0
100
AcDbLine
 10
4.865133639948361
 20
14.65101352080035
 30
0.0
 11
4.803133639948351
 21
14.71301352080036
 31
0.0
  0
LINE
  5
237
330
2A
100
AcDbEntity
  8
0
 62
     0
100
AcDbLine
 10
5.052133639948352
 20
14.46401352080036
 30
0.0
 11
4.990133639948348
 21
14.52601352080036
 31
0.0
  0
LINE
  5
238
330
2A
100
AcDbEntity
  8
0
 62
     0
100
AcDbLine
 10
5.429355486839356
 20
14.0160809957907
 30
0.0
 11
5.367355486839355
 21
14.0780809957907
 31
0.0
  0
LINE
  5
239
330
2A
100
AcDbEntity
  8
0
 62
     0
100
AcDbLine
 10
4.865133639948361
 20
14.58030284268169
 30
0.0
 11
4.803133639948351
 21
14.6423028426817
 31
0.0
  0
LINE
  5
23A
330
2A
100
AcDbEntity
  8
0
 62
     0
100
AcDbLine
 10
5.052133639948352
 20
14.3933028426817
 30
0.0
 11
4.990133639948344
 21
14.45530284268171
 31
0.0
  0
LINE
  5
23B
330
2A
100
AcDbEntity
  8
0
 62
     0
100
AcDbLine
 10
5.3586448087207
 20
14.0160809957907
 30
0.0
 11
5.296644808720699
 21
14.0780809957907
 31
0.0
  0
LINE
  5
23C
330
2A
100
AcDbEntity
  8
0
 62
     0
100
AcDbLine
 10
4.865133639948362
 20
14.50959216456304
 30
0.0
 11
4.803133639948351
 21
14.57159216456305
 31
0.0
  0
LINE
  5
23D
330
2A
100
AcDbEntity
  8
0
 62
     0
100
AcDbLine
 10
5.052133639948352
 20
14.32259216456305
 30
0.0
 11
4.990133639948339
 21
14.38459216456306
 31
0.0
  0
LINE
  5
23E
330
2A
100
AcDbEntity
  8
0
 62
     0
100
AcDbLine
 10
5.287934130602047
 20
14.0160809957907
 30
0.0
 11
5.225934130602046
 21
14.0780809957907
 31
0.0
  0
LINE
  5
23F
330
2A
100
AcDbEntity
  8
0
 62
     0
100
AcDbLine
 10
4.6779217396057
 20
14.62609338678705
 30
0.0
 11
4.665646030944686
 21
14.63836909544806
 31
0.0
  0
LINE
  5
240
330
2A
100
AcDbEntity
  8
0
 62
     0
100
AcDbLine
 10
5.040433225677742
 20
14.26358190071501
 30
0.0
 11
4.978541812206717
 21
14.32547331418603
 31
0.0
  0
LINE
  5
241
330
2A
100
AcDbEntity
  8
0
 62
     0
100
AcDbLine
 10
4.865133639948362
 20
14.43888148644439
 30
0.0
 11
4.803133639948351
 21
14.50088148644439
 31
0.0
  0
LINE
  5
242
330
2A
100
AcDbEntity
  8
0
 62
     0
100
AcDbLine
 10
5.217223452483391
 20
14.0160809957907
 30
0.0
 11
5.15522345248339
 21
14.0780809957907
 31
0.0
  0
LINE
  5
243
330
2A
100
AcDbEntity
  8
0
 62
     0
100
AcDbLine
 10
4.678133639948364
 20
14.55517080832573
 30
0.0
 11
4.616133639948361
 21
14.61717080832573
 31
0.0
  0
LINE
  5
244
330
2A
100
AcDbEntity
  8
0
 62
     0
100
AcDbLine
 10
4.970223452483387
 20
14.2630809957907
 30
0.0
 11
4.908223452483392
 21
14.3250809957907
 31
0.0
  0
LINE
  5
245
330
2A
100
AcDbEntity
  8
0
 62
     0
100
AcDbLine
 10
4.865133639948362
 20
14.36817080832573
 30
0.0
 11
4.803133639948351
 21
14.43017080832574
 31
0.0
  0
LINE
  5
246
330
2A
100
AcDbEntity
  8
0
 62
     0
100
AcDbLine
 10
5.146512774364738
 20
14.0160809957907
 30
0.0
 11
5.084512774364737
 21
14.0780809957907
 31
0.0
  0
LINE
  5
247
330
2A
100
AcDbEntity
  8
0
 62
     0
100
AcDbLine
 10
4.678133639948369
 20
14.48446013020707
 30
0.0
 11
4.61613363994836
 21
14.54646013020708
 31
0.0
  0
LINE
  5
248
330
2A
100
AcDbEntity
  8
0
 62
     0
100
AcDbLine
 10
4.899512774364732
 20
14.2630809957907
 30
0.0
 11
4.803133639948351
 21
14.35946013020709
 31
0.0
  0
LINE
  5
249
330
2A
100
AcDbEntity
  8
0
 62
     0
100
AcDbLine
 10
5.075802096246082
 20
14.0160809957907
 30
0.0
 11
5.013802096246081
 21
14.0780809957907
 31
0.0
  0
LINE
  5
24A
330
2A
100
AcDbEntity
  8
0
 62
     0
100
AcDbLine
 10
4.678133639948375
 20
14.41374945208841
 30
0.0
 11
4.616133639948359
 21
14.47574945208842
 31
0.0
  0
LINE
  5
24B
330
2A
100
AcDbEntity
  8
0
 62
     0
100
AcDbLine
 10
4.865133639948354
 20
14.22674945208843
 30
0.0
 11
4.766802096246084
 21
14.3250809957907
 31
0.0
  0
LINE
  5
24C
330
2A
100
AcDbEntity
  8
0
 62
     0
100
AcDbLine
 10
5.005091418127427
 20
14.0160809957907
 30
0.0
 11
4.803133639948359
 21
14.21803877396977
 31
0.0
  0
LINE
  5
24D
330
2A
100
AcDbEntity
  8
0
 62
     0
100
AcDbLine
 10
4.678133639948381
 20
14.34303877396975
 30
0.0
 11
4.616133639948358
 21
14.40503877396977
 31
0.0
  0
LINE
  5
24E
330
2A
100
AcDbEntity
  8
0
 62
     0
100
AcDbLine
 10
4.758091418127422
 20
14.2630809957907
 30
0.0
 11
4.696091418127426
 21
14.3250809957907
 31
0.0
  0
LINE
  5
24F
330
2A
100
AcDbEntity
  8
0
 62
     0
100
AcDbLine
 10
4.934380740008773
 20
14.0160809957907
 30
0.0
 11
4.793916569544999
 21
14.15654516625447
 31
0.0
  0
LINE
  5
250
330
2A
100
AcDbEntity
  8
0
 62
     0
100
AcDbLine
 10
4.687380740008769
 20
14.2630809957907
 30
0.0
 11
4.616133639948358
 21
14.33432809585112
 31
0.0
  0
LINE
  5
251
330
2A
100
AcDbEntity
  8
0
 62
     0
100
AcDbLine
 10
4.802401850904369
 20
14.07734920677645
 30
0.0
 11
4.758561230485671
 21
14.12118982719515
 31
0.0
  0
LINE
  5
252
330
2A
100
AcDbEntity
  8
0
 62
     0
100
AcDbLine
 10
4.767046511854315
 20
14.04199386770785
 30
0.0
 11
4.723205891426344
 21
14.08583448813582
 31
0.0
  0
LINE
  5
253
330
2A
100
AcDbEntity
  8
0
 62
     0
100
AcDbLine
 10
4.722248705652808
 20
14.0160809957907
 30
0.0
 11
4.660248705652805
 21
14.0780809957907
 31
0.0
  0
LINE
  5
254
330
2A
100
AcDbEntity
  8
0
 62
     0
100
AcDbLine
 10
4.651538027534153
 20
14.0160809957907
 30
0.0
 11
4.589538027534149
 21
14.0780809957907
 31
0.0
  0
LINE
  5
255
330
2A
100
AcDbEntity
  8
0
 62
     0
100
AcDbLine
 10
4.580827349415499
 20
14.0160809957907
 30
0.0
 11
4.518827349415496
 21
14.0780809957907
 31
0.0
  0
LINE
  5
256
330
2A
100
AcDbEntity
  8
0
 62
     0
100
AcDbLine
 10
4.510116671296843
 20
14.0160809957907
 30
0.0
 11
4.44811667129684
 21
14.0780809957907
 31
0.0
  0
LINE
  5
257
330
2A
100
AcDbEntity
  8
0
 62
     0
100
AcDbLine
 10
4.439405993178188
 20
14.0160809957907
 30
0.0
 11
4.377405993178184
 21
14.0780809957907
 31
0.0
  0
LINE
  5
258
330
2A
100
AcDbEntity
  8
0
 62
     0
100
AcDbLine
 10
4.368695315059534
 20
14.0160809957907
 30
0.0
 11
4.306695315059531
 21
14.0780809957907
 31
0.0
  0
LINE
  5
259
330
2A
100
AcDbEntity
  8
0
 62
     0
100
AcDbLine
 10
4.297984636940879
 20
14.0160809957907
 30
0.0
 11
4.235984636940876
 21
14.0780809957907
 31
0.0
  0
LINE
  5
25A
330
2A
100
AcDbEntity
  8
0
 62
     0
100
AcDbLine
 10
4.227273958822225
 20
14.0160809957907
 30
0.0
 11
4.165273958822222
 21
14.0780809957907
 31
0.0
  0
LINE
  5
25B
330
2A
100
AcDbEntity
  8
0
 62
     0
100
AcDbLine
 10
4.156563280703569
 20
14.0160809957907
 30
0.0
 11
4.116133639948351
 21
14.05651063654592
 31
0.0
  0
ENDBLK
  5
25C
330
2A
100
AcDbEntity
  8
OBJ2
100
AcDbBlockEnd
  0
BLOCK
  5
25D
330
2B
100
AcDbEntity
  8
OBJ2
100
AcDbBlockBegin
  2
*X9
 70
     1
 10
0.0
 20
0.0
 30
0.0
  3
*X9
  1

  0
LINE
  5
25E
330
2B
100
AcDbEntity
  8
0
 62
     0
100
AcDbLine
 10
13.9014620827417
 20
14.59494119907617
 30
0.0
 11
13.86932228602715
 21
14.62708099579072
 31
0.0
  0
LINE
  5
25F
330
2B
100
AcDbEntity
  8
0
 62
     0
100
AcDbLine
 10
13.7144620827417
 20
14.78194119907616
 30
0.0
 11
13.6524620827417
 21
14.84394119907616
 31
0.0
  0
LINE
  5
260
330
2B
100
AcDbEntity
  8
0
 62
     0
100
AcDbLine
 10
13.7144620827417
 20
14.85265187719481
 30
0.0
 11
13.6524620827417
 21
14.91465187719482
 31
0.0
  0
LINE
  5
261
330
2B
100
AcDbEntity
  8
0
 62
     0
100
AcDbLine
 10
13.7144620827417
 20
14.92336255531347
 30
0.0
 11
13.6524620827417
 21
14.98536255531347
 31
0.0
  0
LINE
  5
262
330
2B
100
AcDbEntity
  8
0
 62
     0
100
AcDbLine
 10
13.7144620827417
 20
14.99407323343212
 30
0.0
 11
13.6524620827417
 21
15.05607323343213
 31
0.0
  0
LINE
  5
263
330
2B
100
AcDbEntity
  8
0
 62
     0
100
AcDbLine
 10
13.7144620827417
 20
15.06478391155078
 30
0.0
 11
13.6524620827417
 21
15.12678391155078
 31
0.0
  0
LINE
  5
264
330
2B
100
AcDbEntity
  8
0
 62
     0
100
AcDbLine
 10
13.7144620827417
 20
15.13549458966943
 30
0.0
 11
13.6524620827417
 21
15.19749458966944
 31
0.0
  0
LINE
  5
265
330
2B
100
AcDbEntity
  8
0
 62
     0
100
AcDbLine
 10
13.7144620827417
 20
15.20620526778809
 30
0.0
 11
13.6524620827417
 21
15.26820526778809
 31
0.0
  0
LINE
  5
266
330
2B
100
AcDbEntity
  8
0
 62
     0
100
AcDbLine
 10
13.7144620827417
 20
15.27691594590674
 30
0.0
 11
13.6524620827417
 21
15.33891594590674
 31
0.0
  0
LINE
  5
267
330
2B
100
AcDbEntity
  8
0
 62
     0
100
AcDbLine
 10
13.49079703285775
 20
15.5005809957907
 30
0.0
 11
13.4654620827417
 21
15.52591594590674
 31
0.0
  0
LINE
  5
268
330
2B
100
AcDbEntity
  8
0
 62
     0
100
AcDbLine
 10
13.7144620827417
 20
15.3476266240254
 30
0.0
 11
13.6524620827417
 21
15.4096266240254
 31
0.0
  0
LINE
  5
269
330
2B
100
AcDbEntity
  8
0
 62
     0
100
AcDbLine
 10
13.5274620827417
 20
15.5346266240254
 30
0.0
 11
13.4654620827417
 21
15.5966266240254
 31
0.0
  0
LINE
  5
26A
330
2B
100
AcDbEntity
  8
0
 62
     0
100
AcDbLine
 10
13.7144620827417
 20
15.41833730214405
 30
0.0
 11
13.6524620827417
 21
15.48033730214405
 31
0.0
  0
LINE
  5
26B
330
2B
100
AcDbEntity
  8
0
 62
     0
100
AcDbLine
 10
13.5274620827417
 20
15.60533730214405
 30
0.0
 11
13.46546208274171
 21
15.66733730214405
 31
0.0
  0
LINE
  5
26C
330
2B
100
AcDbEntity
  8
0
 62
     0
100
AcDbLine
 10
13.7144620827417
 20
15.48904798026271
 30
0.0
 11
13.6524620827417
 21
15.55104798026271
 31
0.0
  0
LINE
  5
26D
330
2B
100
AcDbEntity
  8
0
 62
     0
100
AcDbLine
 10
13.57792906721371
 20
15.62558099579069
 30
0.0
 11
13.51592906721371
 21
15.6875809957907
 31
0.0
  0
LINE
  5
26E
330
2B
100
AcDbEntity
  8
0
 62
     0
100
AcDbLine
 10
13.7144620827417
 20
15.55975865838137
 30
0.0
 11
13.58663974533237
 21
15.6875809957907
 31
0.0
  0
LINE
  5
26F
330
2B
100
AcDbEntity
  8
0
 62
     0
100
AcDbLine
 10
13.72155778827282
 20
15.6233736309689
 30
0.0
 11
13.65735042345102
 21
15.6875809957907
 31
0.0
  0
LINE
  5
270
330
2B
100
AcDbEntity
  8
0
 62
     0
100
AcDbLine
 10
13.90140967712858
 20
15.51423242023179
 30
0.0
 11
13.8394620827417
 21
15.57618001461867
 31
0.0
  0
LINE
  5
271
330
2B
100
AcDbEntity
  8
0
 62
     0
100
AcDbLine
 10
13.79006110156967
 20
15.62558099579069
 30
0.0
 11
13.72806110156967
 21
15.6875809957907
 31
0.0
  0
LINE
  5
272
330
2B
100
AcDbEntity
  8
0
 62
     0
100
AcDbLine
 10
13.9014620827417
 20
15.58489069273733
 30
0.0
 11
13.79877177968833
 21
15.6875809957907
 31
0.0
  0
LINE
  5
273
330
2B
100
AcDbEntity
  8
0
 62
     0
100
AcDbLine
 10
13.9014620827417
 20
15.65560137085599
 30
0.0
 11
13.86948245780699
 21
15.6875809957907
 31
0.0
  0
LINE
  5
274
330
2B
100
AcDbEntity
  8
0
 62
     0
100
AcDbLine
 10
14.4014620827417
 20
14.02423052095751
 30
0.0
 11
14.35911160790851
 21
14.0665809957907
 31
0.0
  0
LINE
  5
275
330
2B
100
AcDbEntity
  8
0
 62
     0
100
AcDbLine
 10
13.7144620827417
 20
14.7112305209575
 30
0.0
 11
13.6524620827417
 21
14.77323052095751
 31
0.0
  0
LINE
  5
276
330
2B
100
AcDbEntity
  8
0
 62
     0
100
AcDbLine
 10
13.9014620827417
 20
14.52423052095751
 30
0.0
 11
13.8394620827417
 21
14.58623052095751
 31
0.0
  0
LINE
  5
277
330
2B
100
AcDbEntity
  8
0
 62
     0
100
AcDbLine
 10
14.35040092978985
 20
14.0045809957907
 30
0.0
 11
14.28840092978985
 21
14.0665809957907
 31
0.0
  0
LINE
  5
278
330
2B
100
AcDbEntity
  8
0
 62
     0
100
AcDbLine
 10
13.71446208274171
 20
14.64051984283885
 30
0.0
 11
13.6524620827417
 21
14.70251984283885
 31
0.0
  0
LINE
  5
279
330
2B
100
AcDbEntity
  8
0
 62
     0
100
AcDbLine
 10
13.9014620827417
 20
14.45351984283885
 30
0.0
 11
13.83946208274169
 21
14.51551984283886
 31
0.0
  0
LINE
  5
27A
330
2B
100
AcDbEntity
  8
0
 62
     0
100
AcDbLine
 10
14.27969025167119
 20
14.0045809957907
 30
0.0
 11
14.2176902516712
 21
14.0665809957907
 31
0.0
  0
LINE
  5
27B
330
2B
100
AcDbEntity
  8
0
 62
     0
100
AcDbLine
 10
13.71446208274171
 20
14.56980916472019
 30
0.0
 11
13.6524620827417
 21
14.6318091647202
 31
0.0
  0
LINE
  5
27C
330
2B
100
AcDbEntity
  8
0
 62
     0
100
AcDbLine
 10
13.9014620827417
 20
14.3828091647202
 30
0.0
 11
13.83946208274169
 21
14.44480916472021
 31
0.0
  0
LINE
  5
27D
330
2B
100
AcDbEntity
  8
0
 62
     0
100
AcDbLine
 10
14.20897957355254
 20
14.0045809957907
 30
0.0
 11
14.14697957355254
 21
14.0665809957907
 31
0.0
  0
LINE
  5
27E
330
2B
100
AcDbEntity
  8
0
 62
     0
100
AcDbLine
 10
13.71446208274171
 20
14.49909848660154
 30
0.0
 11
13.6524620827417
 21
14.56109848660155
 31
0.0
  0
LINE
  5
27F
330
2B
100
AcDbEntity
  8
0
 62
     0
100
AcDbLine
 10
13.9014620827417
 20
14.31209848660155
 30
0.0
 11
13.83946208274168
 21
14.37409848660156
 31
0.0
  0
LINE
  5
280
330
2B
100
AcDbEntity
  8
0
 62
     0
100
AcDbLine
 10
14.13826889543389
 20
14.0045809957907
 30
0.0
 11
14.07626889543389
 21
14.0665809957907
 31
0.0
  0
LINE
  5
281
330
2B
100
AcDbEntity
  8
0
 62
     0
100
AcDbLine
 10
13.5269741411795
 20
14.61587575004509
 30
0.0
 11
13.51625683699608
 21
14.62659305422851
 31
0.0
  0
LINE
  5
282
330
2B
100
AcDbEntity
  8
0
 62
     0
100
AcDbLine
 10
13.89054329713696
 20
14.25230659408763
 30
0.0
 11
13.82866735627395
 21
14.31418253495064
 31
0.0
  0
LINE
  5
283
330
2B
100
AcDbEntity
  8
0
 62
     0
100
AcDbLine
 10
13.71446208274171
 20
14.42838780848288
 30
0.0
 11
13.6524620827417
 21
14.49038780848289
 31
0.0
  0
LINE
  5
284
330
2B
100
AcDbEntity
  8
0
 62
     0
100
AcDbLine
 10
14.06755821731523
 20
14.0045809957907
 30
0.0
 11
14.00555821731523
 21
14.0665809957907
 31
0.0
  0
LINE
  5
285
330
2B
100
AcDbEntity
  8
0
 62
     0
100
AcDbLine
 10
13.52746208274171
 20
14.54467713036422
 30
0.0
 11
13.46546208274171
 21
14.60667713036423
 31
0.0
  0
LINE
  5
286
330
2B
100
AcDbEntity
  8
0
 62
     0
100
AcDbLine
 10
13.82055821731523
 20
14.2515809957907
 30
0.0
 11
13.75855821731524
 21
14.3135809957907
 31
0.0
  0
LINE
  5
287
330
2B
100
AcDbEntity
  8
0
 62
     0
100
AcDbLine
 10
13.71446208274171
 20
14.35767713036423
 30
0.0
 11
13.6524620827417
 21
14.41967713036424
 31
0.0
  0
LINE
  5
288
330
2B
100
AcDbEntity
  8
0
 62
     0
100
AcDbLine
 10
13.99684753919658
 20
14.0045809957907
 30
0.0
 11
13.93484753919658
 21
14.0665809957907
 31
0.0
  0
LINE
  5
289
330
2B
100
AcDbEntity
  8
0
 62
     0
100
AcDbLine
 10
13.52746208274171
 20
14.47396645224556
 30
0.0
 11
13.46546208274171
 21
14.53596645224557
 31
0.0
  0
LINE
  5
28A
330
2B
100
AcDbEntity
  8
0
 62
     0
100
AcDbLine
 10
13.74984753919658
 20
14.2515809957907
 30
0.0
 11
13.6524620827417
 21
14.34896645224558
 31
0.0
  0
LINE
  5
28B
330
2B
100
AcDbEntity
  8
0
 62
     0
100
AcDbLine
 10
13.92613686107792
 20
14.0045809957907
 30
0.0
 11
13.86413686107792
 21
14.0665809957907
 31
0.0
  0
LINE
  5
28C
330
2B
100
AcDbEntity
  8
0
 62
     0
100
AcDbLine
 10
13.52746208274172
 20
14.4032557741269
 30
0.0
 11
13.46546208274171
 21
14.46525577412692
 31
0.0
  0
LINE
  5
28D
330
2B
100
AcDbEntity
  8
0
 62
     0
100
AcDbLine
 10
13.7144620827417
 20
14.21625577412692
 30
0.0
 11
13.61713686107793
 21
14.31358099579069
 31
0.0
  0
LINE
  5
28E
330
2B
100
AcDbEntity
  8
0
 62
     0
100
AcDbLine
 10
13.85542618295927
 20
14.0045809957907
 30
0.0
 11
13.6524620827417
 21
14.20754509600827
 31
0.0
  0
LINE
  5
28F
330
2B
100
AcDbEntity
  8
0
 62
     0
100
AcDbLine
 10
13.52746208274173
 20
14.33254509600825
 30
0.0
 11
13.4654620827417
 21
14.39454509600827
 31
0.0
  0
LINE
  5
290
330
2B
100
AcDbEntity
  8
0
 62
     0
100
AcDbLine
 10
13.60842618295927
 20
14.2515809957907
 30
0.0
 11
13.54642618295927
 21
14.31358099579069
 31
0.0
  0
LINE
  5
291
330
2B
100
AcDbEntity
  8
0
 62
     0
100
AcDbLine
 10
13.78471550484062
 20
14.0045809957907
 30
0.0
 11
13.64374817335759
 21
14.14554832727372
 31
0.0
  0
LINE
  5
292
330
2B
100
AcDbEntity
  8
0
 62
     0
100
AcDbLine
 10
13.53771550484061
 20
14.2515809957907
 30
0.0
 11
13.4654620827417
 21
14.32383441788961
 31
0.0
  0
LINE
  5
293
330
2B
100
AcDbEntity
  8
0
 62
     0
100
AcDbLine
 10
13.65223345471683
 20
14.06635236779583
 30
0.0
 11
13.60839283429827
 21
14.11019298821439
 31
0.0
  0
LINE
  5
294
330
2B
100
AcDbEntity
  8
0
 62
     0
100
AcDbLine
 10
13.61687811566678
 20
14.03099702872722
 30
0.0
 11
13.57303749523894
 21
14.07483764915506
 31
0.0
  0
LINE
  5
295
330
2B
100
AcDbEntity
  8
0
 62
     0
100
AcDbLine
 10
13.57258347048465
 20
14.0045809957907
 30
0.0
 11
13.51058347048465
 21
14.0665809957907
 31
0.0
  0
LINE
  5
296
330
2B
100
AcDbEntity
  8
0
 62
     0
100
AcDbLine
 10
13.501872792366
 20
14.0045809957907
 30
0.0
 11
13.439872792366
 21
14.0665809957907
 31
0.0
  0
LINE
  5
297
330
2B
100
AcDbEntity
  8
0
 62
     0
100
AcDbLine
 10
13.43116211424734
 20
14.0045809957907
 30
0.0
 11
13.36916211424734
 21
14.0665809957907
 31
0.0
  0
LINE
  5
298
330
2B
100
AcDbEntity
  8
0
 62
     0
100
AcDbLine
 10
13.36045143612869
 20
14.0045809957907
 30
0.0
 11
13.29845143612869
 21
14.0665809957907
 31
0.0
  0
LINE
  5
299
330
2B
100
AcDbEntity
  8
0
 62
     0
100
AcDbLine
 10
13.28974075801003
 20
14.0045809957907
 30
0.0
 11
13.22774075801003
 21
14.0665809957907
 31
0.0
  0
LINE
  5
29A
330
2B
100
AcDbEntity
  8
0
 62
     0
100
AcDbLine
 10
13.21903007989137
 20
14.0045809957907
 30
0.0
 11
13.15703007989138
 21
14.0665809957907
 31
0.0
  0
LINE
  5
29B
330
2B
100
AcDbEntity
  8
0
 62
     0
100
AcDbLine
 10
13.14831940177272
 20
14.0045809957907
 30
0.0
 11
13.08631940177273
 21
14.0665809957907
 31
0.0
  0
LINE
  5
29C
330
2B
100
AcDbEntity
  8
0
 62
     0
100
AcDbLine
 10
13.07760872365407
 20
14.0045809957907
 30
0.0
 11
13.01560872365407
 21
14.0665809957907
 31
0.0
  0
LINE
  5
29D
330
2B
100
AcDbEntity
  8
0
 62
     0
100
AcDbLine
 10
13.00689804553541
 20
14.0045809957907
 30
0.0
 11
12.9654620827417
 21
14.04601695858442
 31
0.0
  0
ENDBLK
  5
29E
330
2B
100
AcDbEntity
  8
OBJ2
100
AcDbBlockEnd
  0
BLOCK
  5
29F
330
2F
100
AcDbEntity
  8
DIM
100
AcDbBlockBegin
  2
4043
 70
     0
 10
0.0
 20
0.0
 30
0.0
  3
4043
  1

  0
LWPOLYLINE
  5
2A0
330
2F
100
AcDbEntity
  8
OBJ
 62
     7
100
AcDbPolyline
 90
       64
 70
     1
 43
0.0
 10
-0.1709999999999958
 20
-1.060499999999985
 42
-0.4142135623730951
 10
-0.1559999999999952
 20
-1.075499999999985
 10
-0.1559999999999735
 20
-1.359000000000002
 42
0.4142135623730789
 10
-0.1409999999999729
 20
-1.374000000000001
 10
-0.0460000000000025
 20
-1.373999999999999
 42
0.4142135623730878
 10
-0.0310000000000028
 20
-1.358999999999999
 10
-0.0309999999999988
 20
-0.0769000000000002
 42
0.4142135623730951
 10
-0.0458999999999961
 20
-0.0620000000000012
 10
-0.141099999999998
 20
-0.0619999999999994
 42
0.4142135623730951
 10
-0.1559999999999988
 20
-0.0769000000000002
 10
-0.1559999999999988
 20
-0.1721000000000004
 42
-0.4142135623730951
 10
-0.170899999999996
 20
-0.1869999999999994
 10
-0.2030999999999956
 20
-0.1869999999999994
 42
-0.4142135623730951
 10
-0.2179999999999964
 20
-0.1721000000000004
 10
-0.2179999999999929
 20
-0.0149000000000008
 42
-0.4142135623730951
 10
-0.2030999999999956
 20
0.0
 10
0.2030999999999956
 20
0.0
 42
-0.4142135623730951
 10
0.2179999999999929
 20
-0.0149000000000008
 10
0.218
 20
-0.1721000000000004
 42
-0.4142135623730951
 10
0.2030999999999956
 20
-0.1869999999999994
 10
0.1708999999999996
 20
-0.1869999999999994
 42
-0.4142135623730951
 10
0.1560000000000024
 20
-0.1721000000000004
 10
0.1560000000000024
 20
-0.0769000000000002
 42
0.4142135623730951
 10
0.141099999999998
 20
-0.0619999999999994
 10
0.0458999999999996
 20
-0.0620000000000012
 42
0.4142135623730951
 10
0.0309999999999988
 20
-0.0769000000000002
 10
0.0310000000000064
 20
-1.359000000000001
 42
0.4142135623730988
 10
0.0460000000000069
 20
-1.374000000000001
 10
0.1409999999999845
 20
-1.373999999999999
 42
0.4142135623730732
 10
0.1559999999999841
 20
-1.358999999999999
 10
0.1559999999999988
 20
-1.075499999999985
 42
-0.4142135623730951
 10
0.1709999999999994
 20
-1.060499999999985
 10
0.2029999999999994
 20
-1.060499999999986
 42
-0.4142135623730951
 10
0.2179999999999964
 20
-1.075499999999984
 10
0.2180000000000071
 20
-1.496810152797912
 42
0.19822125942593
 10
0.2223652268466871
 20
-1.507388508056522
 10
0.3309758175649371
 20
-1.61657835525861
 42
0.1996036581629045
 10
0.3416105907182647
 20
-1.620999999999998
 10
0.703000000000003
 20
-1.620999999999999
 42
-0.4142135623730777
 10
0.7180000000000036
 20
-1.635999999999999
 10
0.7180000000000036
 20
-1.667999999999999
 42
-0.4142135623730951
 10
0.703000000000003
 20
-1.682999999999999
 10
0.3160925620691941
 20
-1.682999999999999
 42
-0.1996036581629167
 10
0.3050146733678183
 20
-1.678394120061051
 10
0.1603652268466895
 20
-1.532973209825138
 42
-0.1982212594259213
 10
0.1560000000000095
 20
-1.522394854566528
 10
0.1560000000000095
 20
-1.450999999999999
 42
0.4142135623730951
 10
0.1410000000000089
 20
-1.435999999999999
 10
-0.1410000000000071
 20
-1.435999999999998
 42
0.4142135623730951
 10
-0.1560000000000077
 20
-1.450999999999999
 10
-0.1560000000000077
 20
-1.522394854566528
 42
-0.1982212594259213
 10
-0.1603652268466877
 20
-1.532973209825138
 10
-0.3050146733678165
 20
-1.678394120061051
 42
-0.1996036581629158
 10
-0.3160925620691941
 20
-1.682999999999999
 10
-0.703000000000003
 20
-1.682999999999999
 42
-0.4142135623730951
 10
-0.7180000000000036
 20
-1.667999999999999
 10
-0.7180000000000036
 20
-1.635999999999999
 42
-0.4142135623730603
 10
-0.703000000000003
 20
-1.621
 10
-0.3416105907182647
 20
-1.620999999999997
 42
0.1996036581629046
 10
-0.3309758175649389
 20
-1.61657835525861
 10
-0.2223652268466854
 20
-1.507388508056522
 42
0.198221259425928
 10
-0.2179999999999964
 20
-1.496810152797913
 10
-0.2179999999999929
 20
-1.075499999999985
 42
-0.4142135623730951
 10
-0.2029999999999958
 20
-1.060499999999986
  0
ENDBLK
  5
2E2
330
2F
100
AcDbEntity
  8
DIM
100
AcDbBlockEnd
  0
BLOCK
  5
2E3
330
30
100
AcDbEntity
  8
OBJ2
100
AcDbBlockBegin
  2
*X14
 70
     1
 10
0.0
 20
0.0
 30
0.0
  3
*X14
  1

  0
LINE
  5
2E4
330
30
100
AcDbEntity
  8
0
 62
     0
100
AcDbLine
 10
18.22071170431688
 20
10.69995564621291
 30
0.0
 11
18.21350829037054
 21
10.70715906015925
 31
0.0
  0
LINE
  5
2E5
330
30
100
AcDbEntity
  8
0
 62
     0
100
AcDbLine
 10
18.03513363994835
 20
10.88553371058144
 30
0.0
 11
17.97313363994835
 21
10.94753371058144
 31
0.0
  0
LINE
  5
2E6
330
30
100
AcDbEntity
  8
0
 62
     0
100
AcDbLine
 10
18.03513363994835
 20
10.95624438870009
 30
0.0
 11
17.97313363994835
 21
11.0182443887001
 31
0.0
  0
LINE
  5
2E7
330
30
100
AcDbEntity
  8
0
 62
     0
100
AcDbLine
 10
18.03513363994835
 20
11.02695506681875
 30
0.0
 11
17.97313363994835
 21
11.08895506681875
 31
0.0
  0
LINE
  5
2E8
330
30
100
AcDbEntity
  8
0
 62
     0
100
AcDbLine
 10
18.03513363994835
 20
11.0976657449374
 30
0.0
 11
17.97313363994835
 21
11.15966574493741
 31
0.0
  0
LINE
  5
2E9
330
30
100
AcDbEntity
  8
0
 62
     0
100
AcDbLine
 10
18.03513363994835
 20
11.16837642305606
 30
0.0
 11
17.97313363994835
 21
11.23037642305606
 31
0.0
  0
LINE
  5
2EA
330
30
100
AcDbEntity
  8
0
 62
     0
100
AcDbLine
 10
18.03513363994835
 20
11.23908710117472
 30
0.0
 11
17.97313363994835
 21
11.30108710117472
 31
0.0
  0
LINE
  5
2EB
330
30
100
AcDbEntity
  8
0
 62
     0
100
AcDbLine
 10
18.03513363994835
 20
11.30979777929337
 30
0.0
 11
17.97313363994835
 21
11.37179777929337
 31
0.0
  0
LINE
  5
2EC
330
30
100
AcDbEntity
  8
0
 62
     0
100
AcDbLine
 10
18.03513363994835
 20
11.38050845741202
 30
0.0
 11
17.97313363994835
 21
11.44250845741202
 31
0.0
  0
LINE
  5
2ED
330
30
100
AcDbEntity
  8
0
 62
     0
100
AcDbLine
 10
17.83355757977551
 20
11.58208451758486
 30
0.0
 11
17.78613363994835
 21
11.62950845741202
 31
0.0
  0
LINE
  5
2EE
330
30
100
AcDbEntity
  8
0
 62
     0
100
AcDbLine
 10
18.03513363994835
 20
11.45121913553068
 30
0.0
 11
17.97313363994835
 21
11.51321913553068
 31
0.0
  0
LINE
  5
2EF
330
30
100
AcDbEntity
  8
0
 62
     0
100
AcDbLine
 10
17.84813363994835
 20
11.63821913553068
 30
0.0
 11
17.78613363994835
 21
11.70021913553067
 31
0.0
  0
LINE
  5
2F0
330
30
100
AcDbEntity
  8
0
 62
     0
100
AcDbLine
 10
18.03513363994835
 20
11.52192981364934
 30
0.0
 11
17.97313363994835
 21
11.58392981364934
 31
0.0
  0
LINE
  5
2F1
330
30
100
AcDbEntity
  8
0
 62
     0
100
AcDbLine
 10
17.85346278956132
 20
11.70360066403636
 30
0.0
 11
17.79146278956132
 21
11.76560066403636
 31
0.0
  0
LINE
  5
2F2
330
30
100
AcDbEntity
  8
0
 62
     0
100
AcDbLine
 10
18.03513363994835
 20
11.59264049176799
 30
0.0
 11
17.97313363994835
 21
11.65464049176799
 31
0.0
  0
LINE
  5
2F3
330
30
100
AcDbEntity
  8
0
 62
     0
100
AcDbLine
 10
17.92069313592564
 20
11.7070809957907
 30
0.0
 11
17.85869313592564
 21
11.7690809957907
 31
0.0
  0
LINE
  5
2F4
330
30
100
AcDbEntity
  8
0
 62
     0
100
AcDbLine
 10
18.03513363994835
 20
11.66335116988665
 30
0.0
 11
17.9294038140443
 21
11.7690809957907
 31
0.0
  0
LINE
  5
2F5
330
30
100
AcDbEntity
  8
0
 62
     0
100
AcDbLine
 10
18.18711449216295
 20
11.5820809957907
 30
0.0
 11
18.16013363994835
 21
11.60906184800529
 31
0.0
  0
LINE
  5
2F6
330
30
100
AcDbEntity
  8
0
 62
     0
100
AcDbLine
 10
18.06211449216295
 20
11.7070809957907
 30
0.0
 11
18.00011449216295
 21
11.7690809957907
 31
0.0
  0
LINE
  5
2F7
330
30
100
AcDbEntity
  8
0
 62
     0
100
AcDbLine
 10
18.22213363994835
 20
11.61777252612395
 30
0.0
 11
18.16013363994835
 21
11.67977252612395
 31
0.0
  0
LINE
  5
2F8
330
30
100
AcDbEntity
  8
0
 62
     0
100
AcDbLine
 10
18.1328251702816
 20
11.7070809957907
 30
0.0
 11
18.07082517028161
 21
11.7690809957907
 31
0.0
  0
LINE
  5
2F9
330
30
100
AcDbEntity
  8
0
 62
     0
100
AcDbLine
 10
18.22213363994834
 20
11.68848320424261
 30
0.0
 11
18.14153584840026
 21
11.7690809957907
 31
0.0
  0
LINE
  5
2FA
330
30
100
AcDbEntity
  8
0
 62
     0
100
AcDbLine
 10
18.22063598473332
 20
11.7606915375763
 30
0.0
 11
18.21374418173394
 21
11.76758334057567
 31
0.0
  0
LINE
  5
2FB
330
30
100
AcDbEntity
  8
0
 62
     0
100
AcDbLine
 10
18.72213363994835
 20
10.12782303246278
 30
0.0
 11
18.70187567662044
 21
10.1480809957907
 31
0.0
  0
LINE
  5
2FC
330
30
100
AcDbEntity
  8
0
 62
     0
100
AcDbLine
 10
18.03513363994835
 20
10.81482303246278
 30
0.0
 11
17.97313363994835
 21
10.87682303246279
 31
0.0
  0
LINE
  5
2FD
330
30
100
AcDbEntity
  8
0
 62
     0
100
AcDbLine
 10
18.22213363994834
 20
10.62782303246279
 30
0.0
 11
18.16013363994835
 21
10.68982303246279
 31
0.0
  0
LINE
  5
2FE
330
30
100
AcDbEntity
  8
0
 62
     0
100
AcDbLine
 10
18.69316499850178
 20
10.0860809957907
 30
0.0
 11
18.63116499850178
 21
10.1480809957907
 31
0.0
  0
LINE
  5
2FF
330
30
100
AcDbEntity
  8
0
 62
     0
100
AcDbLine
 10
18.03513363994835
 20
10.74411235434413
 30
0.0
 11
17.97313363994835
 21
10.80611235434413
 31
0.0
  0
LINE
  5
300
330
30
100
AcDbEntity
  8
0
 62
     0
100
AcDbLine
 10
18.22213363994835
 20
10.55711235434413
 30
0.0
 11
18.16013363994835
 21
10.61911235434414
 31
0.0
  0
LINE
  5
301
330
30
100
AcDbEntity
  8
0
 62
     0
100
AcDbLine
 10
18.62245432038313
 20
10.0860809957907
 30
0.0
 11
18.56045432038313
 21
10.1480809957907
 31
0.0
  0
LINE
  5
302
330
30
100
AcDbEntity
  8
0
 62
     0
100
AcDbLine
 10
18.03513363994835
 20
10.67340167622547
 30
0.0
 11
17.97313363994835
 21
10.73540167622548
 31
0.0
  0
LINE
  5
303
330
30
100
AcDbEntity
  8
0
 62
     0
100
AcDbLine
 10
18.22213363994835
 20
10.48640167622547
 30
0.0
 11
18.16013363994834
 21
10.54840167622548
 31
0.0
  0
LINE
  5
304
330
30
100
AcDbEntity
  8
0
 62
     0
100
AcDbLine
 10
18.55174364226447
 20
10.0860809957907
 30
0.0
 11
18.48974364226447
 21
10.1480809957907
 31
0.0
  0
LINE
  5
305
330
30
100
AcDbEntity
  8
0
 62
     0
100
AcDbLine
 10
18.03513363994835
 20
10.60269099810682
 30
0.0
 11
17.97313363994835
 21
10.66469099810682
 31
0.0
  0
LINE
  5
306
330
30
100
AcDbEntity
  8
0
 62
     0
100
AcDbLine
 10
18.22213363994835
 20
10.41569099810682
 30
0.0
 11
18.16013363994834
 21
10.47769099810683
 31
0.0
  0
LINE
  5
307
330
30
100
AcDbEntity
  8
0
 62
     0
100
AcDbLine
 10
18.48103296414582
 20
10.0860809957907
 30
0.0
 11
18.41903296414582
 21
10.1480809957907
 31
0.0
  0
LINE
  5
308
330
30
100
AcDbEntity
  8
0
 62
     0
100
AcDbLine
 10
18.03513363994835
 20
10.53198031998816
 30
0.0
 11
17.97313363994835
 21
10.59398031998817
 31
0.0
  0
LINE
  5
309
330
30
100
AcDbEntity
  8
0
 62
     0
100
AcDbLine
 10
18.22213363994835
 20
10.34498031998816
 30
0.0
 11
18.15986404922246
 21
10.40724991071406
 31
0.0
  0
LINE
  5
30A
330
30
100
AcDbEntity
  8
0
 62
     0
100
AcDbLine
 10
18.41032228602717
 20
10.0860809957907
 30
0.0
 11
18.34832228602716
 21
10.1480809957907
 31
0.0
  0
LINE
  5
30B
330
30
100
AcDbEntity
  8
0
 62
     0
100
AcDbLine
 10
17.84813363994836
 20
10.64826964186951
 30
0.0
 11
17.79140502023014
 21
10.70499826158772
 31
0.0
  0
LINE
  5
30C
330
30
100
AcDbEntity
  8
0
 62
     0
100
AcDbLine
 10
18.22213363994836
 20
10.2742696418695
 30
0.0
 11
18.10132228602716
 21
10.3950809957907
 31
0.0
  0
LINE
  5
30D
330
30
100
AcDbEntity
  8
0
 62
     0
100
AcDbLine
 10
18.03513363994835
 20
10.46126964186951
 30
0.0
 11
17.97313363994835
 21
10.52326964186952
 31
0.0
  0
LINE
  5
30E
330
30
100
AcDbEntity
  8
0
 62
     0
100
AcDbLine
 10
18.33961160790851
 20
10.0860809957907
 30
0.0
 11
18.16013363994836
 21
10.26555896375085
 31
0.0
  0
LINE
  5
30F
330
30
100
AcDbEntity
  8
0
 62
     0
100
AcDbLine
 10
17.84813363994836
 20
10.57755896375085
 30
0.0
 11
17.78613363994836
 21
10.63955896375085
 31
0.0
  0
LINE
  5
310
330
30
100
AcDbEntity
  8
0
 62
     0
100
AcDbLine
 10
18.09261160790851
 20
10.3330809957907
 30
0.0
 11
17.97313363994835
 21
10.45255896375086
 31
0.0
  0
LINE
  5
311
330
30
100
AcDbEntity
  8
0
 62
     0
100
AcDbLine
 10
18.02190092978985
 20
10.3330809957907
 30
0.0
 11
17.95980726951678
 21
10.39517465606377
 31
0.0
  0
LINE
  5
312
330
30
100
AcDbEntity
  8
0
 62
     0
100
AcDbLine
 10
17.84813363994837
 20
10.50684828563218
 30
0.0
 11
17.78613363994836
 21
10.56884828563219
 31
0.0
  0
LINE
  5
313
330
30
100
AcDbEntity
  8
0
 62
     0
100
AcDbLine
 10
17.9511902516712
 20
10.3330809957907
 30
0.0
 11
17.88919025167119
 21
10.3950809957907
 31
0.0
  0
LINE
  5
314
330
30
100
AcDbEntity
  8
0
 62
     0
100
AcDbLine
 10
17.84813363994838
 20
10.43613760751352
 30
0.0
 11
17.78613363994836
 21
10.49813760751354
 31
0.0
  0
LINE
  5
315
330
30
100
AcDbEntity
  8
0
 62
     0
100
AcDbLine
 10
17.88047957355255
 20
10.3330809957907
 30
0.0
 11
17.78613363994836
 21
10.42742692939489
 31
0.0
  0
LINE
  5
316
330
30
100
AcDbEntity
  8
0
 62
     0
100
AcDbLine
 10
17.84813363994834
 20
10.29471625127625
 30
0.0
 11
17.78613363994836
 21
10.35671625127623
 31
0.0
  0
LINE
  5
317
330
30
100
AcDbEntity
  8
0
 62
     0
100
AcDbLine
 10
17.83991020866618
 20
10.23222900443976
 30
0.0
 11
17.78613363994836
 21
10.28600557315758
 31
0.0
  0
LINE
  5
318
330
30
100
AcDbEntity
  8
0
 62
     0
100
AcDbLine
 10
17.80464889976393
 20
10.19677963522336
 30
0.0
 11
17.76080812428091
 21
10.24062041070638
 31
0.0
  0
LINE
  5
319
330
30
100
AcDbEntity
  8
0
 62
     0
100
AcDbLine
 10
17.76938759086167
 20
10.16133026600695
 30
0.0
 11
17.72554681537865
 21
10.20517104148997
 31
0.0
  0
LINE
  5
31A
330
30
100
AcDbEntity
  8
0
 62
     0
100
AcDbLine
 10
17.73412628195942
 20
10.12588089679056
 30
0.0
 11
17.6902855064764
 21
10.16972167227357
 31
0.0
  0
LINE
  5
31B
330
30
100
AcDbEntity
  8
0
 62
     0
100
AcDbLine
 10
17.6988620377128
 20
10.09043446291852
 30
0.0
 11
17.64121550484062
 21
10.1480809957907
 31
0.0
  0
LINE
  5
31C
330
30
100
AcDbEntity
  8
0
 62
     0
100
AcDbLine
 10
17.63250482672196
 20
10.0860809957907
 30
0.0
 11
17.57050482672196
 21
10.1480809957907
 31
0.0
  0
LINE
  5
31D
330
30
100
AcDbEntity
  8
0
 62
     0
100
AcDbLine
 10
17.56179414860331
 20
10.0860809957907
 30
0.0
 11
17.4997941486033
 21
10.1480809957907
 31
0.0
  0
LINE
  5
31E
330
30
100
AcDbEntity
  8
0
 62
     0
100
AcDbLine
 10
17.49108347048465
 20
10.0860809957907
 30
0.0
 11
17.42908347048465
 21
10.1480809957907
 31
0.0
  0
LINE
  5
31F
330
30
100
AcDbEntity
  8
0
 62
     0
100
AcDbLine
 10
17.420372792366
 20
10.0860809957907
 30
0.0
 11
17.358372792366
 21
10.1480809957907
 31
0.0
  0
LINE
  5
320
330
30
100
AcDbEntity
  8
0
 62
     0
100
AcDbLine
 10
17.34966211424734
 20
10.0860809957907
 30
0.0
 11
17.29131884398503
 21
10.14442426605301
 31
0.0
  0
ENDBLK
  5
321
330
30
100
AcDbEntity
  8
OBJ2
100
AcDbBlockEnd
  0
BLOCK
  5
322
330
32
100
AcDbEntity
  8
OBJ2
100
AcDbBlockBegin
  2
*X16
 70
     1
 10
0.0
 20
0.0
 30
0.0
  3
*X16
  1

  0
LINE
  5
323
330
32
100
AcDbEntity
  8
0
 62
     0
100
AcDbLine
 10
4.21289714686872
 20
6.676547283404112
 30
0.0
 11
4.183679358908691
 21
6.705765071364142
 31
0.0
  0
LINE
  5
324
330
32
100
AcDbEntity
  8
0
 62
     0
100
AcDbLine
 10
4.025897146868728
 20
6.863547283404105
 30
0.0
 11
3.963897146868723
 21
6.92554728340411
 31
0.0
  0
LINE
  5
325
330
32
100
AcDbEntity
  8
0
 62
     0
100
AcDbLine
 10
4.025897146868727
 20
6.934257961522759
 30
0.0
 11
3.963897146868723
 21
6.996257961522765
 31
0.0
  0
LINE
  5
326
330
32
100
AcDbEntity
  8
0
 62
     0
100
AcDbLine
 10
4.025897146868727
 20
7.004968639641415
 30
0.0
 11
3.963897146868723
 21
7.066968639641419
 31
0.0
  0
LINE
  5
327
330
32
100
AcDbEntity
  8
0
 62
     0
100
AcDbLine
 10
4.025897146868726
 20
7.075679317760071
 30
0.0
 11
3.963897146868723
 21
7.137679317760074
 31
0.0
  0
LINE
  5
328
330
32
100
AcDbEntity
  8
0
 62
     0
100
AcDbLine
 10
4.025897146868726
 20
7.146389995878726
 30
0.0
 11
3.963897146868724
 21
7.208389995878729
 31
0.0
  0
LINE
  5
329
330
32
100
AcDbEntity
  8
0
 62
     0
100
AcDbLine
 10
4.025897146868725
 20
7.21710067399738
 30
0.0
 11
3.963897146868724
 21
7.279100673997383
 31
0.0
  0
LINE
  5
32A
330
32
100
AcDbEntity
  8
0
 62
     0
100
AcDbLine
 10
4.025897146868725
 20
7.287811352116036
 30
0.0
 11
3.963897146868724
 21
7.349811352116037
 31
0.0
  0
LINE
  5
32B
330
32
100
AcDbEntity
  8
0
 62
     0
100
AcDbLine
 10
4.025897146868724
 20
7.358522030234691
 30
0.0
 11
3.963897146868724
 21
7.420522030234693
 31
0.0
  0
LINE
  5
32C
330
32
100
AcDbEntity
  8
0
 62
     0
100
AcDbLine
 10
3.805154105739289
 20
7.579265071364128
 30
0.0
 11
3.776897146868727
 21
7.607522030234689
 31
0.0
  0
LINE
  5
32D
330
32
100
AcDbEntity
  8
0
 62
     0
100
AcDbLine
 10
4.025897146868724
 20
7.429232708353345
 30
0.0
 11
3.963897146868724
 21
7.491232708353345
 31
0.0
  0
LINE
  5
32E
330
32
100
AcDbEntity
  8
0
 62
     0
100
AcDbLine
 10
3.838897146868724
 20
7.616232708353344
 30
0.0
 11
3.776897146868729
 21
7.678232708353341
 31
0.0
  0
LINE
  5
32F
330
32
100
AcDbEntity
  8
0
 62
     0
100
AcDbLine
 10
4.025897146868723
 20
7.499943386472001
 30
0.0
 11
3.963897146868724
 21
7.561943386472001
 31
0.0
  0
LINE
  5
330
330
32
100
AcDbEntity
  8
0
 62
     0
100
AcDbLine
 10
3.838897146868724
 20
7.686943386472
 30
0.0
 11
3.77689714686873
 21
7.748943386471995
 31
0.0
  0
LINE
  5
331
330
32
100
AcDbEntity
  8
0
 62
     0
100
AcDbLine
 10
4.025897146868723
 20
7.570654064590658
 30
0.0
 11
3.963897146868725
 21
7.632654064590657
 31
0.0
  0
LINE
  5
332
330
32
100
AcDbEntity
  8
0
 62
     0
100
AcDbLine
 10
3.892286140095254
 20
7.704265071364127
 30
0.0
 11
3.830286140095255
 21
7.766265071364127
 31
0.0
  0
LINE
  5
333
330
32
100
AcDbEntity
  8
0
 62
     0
100
AcDbLine
 10
4.025897146868723
 20
7.641364742709312
 30
0.0
 11
3.900996818213908
 21
7.766265071364127
 31
0.0
  0
LINE
  5
334
330
32
100
AcDbEntity
  8
0
 62
     0
100
AcDbLine
 10
4.03491689313188
 20
7.703055674564811
 30
0.0
 11
3.971707496332564
 21
7.766265071364127
 31
0.0
  0
LINE
  5
335
330
32
100
AcDbEntity
  8
0
 62
     0
100
AcDbLine
 10
4.212897146868724
 20
7.595786098946621
 30
0.0
 11
4.150897146868726
 21
7.657786098946617
 31
0.0
  0
LINE
  5
336
330
32
100
AcDbEntity
  8
0
 62
     0
100
AcDbLine
 10
4.104418174451216
 20
7.704265071364126
 30
0.0
 11
4.042418174451217
 21
7.766265071364127
 31
0.0
  0
LINE
  5
337
330
32
100
AcDbEntity
  8
0
 62
     0
100
AcDbLine
 10
4.21289714686872
 20
7.66649677706528
 30
0.0
 11
4.113128852569873
 21
7.766265071364127
 31
0.0
  0
LINE
  5
338
330
32
100
AcDbEntity
  8
0
 62
     0
100
AcDbLine
 10
4.212897146868717
 20
7.737207455183938
 30
0.0
 11
4.183839530688529
 21
7.766265071364127
 31
0.0
  0
LINE
  5
339
330
32
100
AcDbEntity
  8
0
 62
     0
100
AcDbLine
 10
4.712897146868728
 20
6.105836605285452
 30
0.0
 11
4.67346868079005
 21
6.145265071364128
 31
0.0
  0
LINE
  5
33A
330
32
100
AcDbEntity
  8
0
 62
     0
100
AcDbLine
 10
4.025897146868728
 20
6.79283660528545
 30
0.0
 11
3.963897146868723
 21
6.854836605285456
 31
0.0
  0
LINE
  5
33B
330
32
100
AcDbEntity
  8
0
 62
     0
100
AcDbLine
 10
4.212897146868722
 20
6.605836605285456
 30
0.0
 11
4.150897146868722
 21
6.667836605285457
 31
0.0
  0
LINE
  5
33C
330
32
100
AcDbEntity
  8
0
 62
     0
100
AcDbLine
 10
4.664758002671397
 20
6.083265071364128
 30
0.0
 11
4.602758002671396
 21
6.145265071364129
 31
0.0
  0
LINE
  5
33D
330
32
100
AcDbEntity
  8
0
 62
     0
100
AcDbLine
 10
4.025897146868729
 20
6.722125927166795
 30
0.0
 11
3.963897146868722
 21
6.784125927166802
 31
0.0
  0
LINE
  5
33E
330
32
100
AcDbEntity
  8
0
 62
     0
100
AcDbLine
 10
4.212897146868724
 20
6.5351259271668
 30
0.0
 11
4.150897146868718
 21
6.597125927166807
 31
0.0
  0
LINE
  5
33F
330
32
100
AcDbEntity
  8
0
 62
     0
100
AcDbLine
 10
4.594047324552741
 20
6.083265071364128
 30
0.0
 11
4.532047324552739
 21
6.145265071364129
 31
0.0
  0
LINE
  5
340
330
32
100
AcDbEntity
  8
0
 62
     0
100
AcDbLine
 10
4.025897146868729
 20
6.651415249048139
 30
0.0
 11
3.963897146868722
 21
6.713415249048146
 31
0.0
  0
LINE
  5
341
330
32
100
AcDbEntity
  8
0
 62
     0
100
AcDbLine
 10
4.212897146868725
 20
6.464415249048142
 30
0.0
 11
4.150897146868715
 21
6.526415249048154
 31
0.0
  0
LINE
  5
342
330
32
100
AcDbEntity
  8
0
 62
     0
100
AcDbLine
 10
4.523336646434087
 20
6.083265071364128
 30
0.0
 11
4.461336646434085
 21
6.145265071364129
 31
0.0
  0
LINE
  5
343
330
32
100
AcDbEntity
  8
0
 62
     0
100
AcDbLine
 10
4.02589714686873
 20
6.580704570929484
 30
0.0
 11
3.963897146868722
 21
6.642704570929492
 31
0.0
  0
LINE
  5
344
330
32
100
AcDbEntity
  8
0
 62
     0
100
AcDbLine
 10
4.212897146868727
 20
6.393704570929486
 30
0.0
 11
4.15089714686871
 21
6.455704570929504
 31
0.0
  0
LINE
  5
345
330
32
100
AcDbEntity
  8
0
 62
     0
100
AcDbLine
 10
4.452625968315432
 20
6.083265071364128
 30
0.0
 11
4.39062596831543
 21
6.145265071364129
 31
0.0
  0
LINE
  5
346
330
32
100
AcDbEntity
  8
0
 62
     0
100
AcDbLine
 10
4.02589714686873
 20
6.509993892810829
 30
0.0
 11
3.963897146868722
 21
6.571993892810838
 31
0.0
  0
LINE
  5
347
330
32
100
AcDbEntity
  8
0
 62
     0
100
AcDbLine
 10
4.212897146868729
 20
6.32299389281083
 30
0.0
 11
4.142225617538155
 21
6.393665422141404
 31
0.0
  0
LINE
  5
348
330
32
100
AcDbEntity
  8
0
 62
     0
100
AcDbLine
 10
4.381915290196777
 20
6.083265071364128
 30
0.0
 11
4.150897146868733
 21
6.314283214692172
 31
0.0
  0
LINE
  5
349
330
32
100
AcDbEntity
  8
0
 62
     0
100
AcDbLine
 10
3.838897146868734
 20
6.626283214692171
 30
0.0
 11
3.77689714686873
 21
6.688283214692174
 31
0.0
  0
LINE
  5
34A
330
32
100
AcDbEntity
  8
0
 62
     0
100
AcDbLine
 10
4.134915290196777
 20
6.330265071364129
 30
0.0
 11
4.072915290196778
 21
6.392265071364127
 31
0.0
  0
LINE
  5
34B
330
32
100
AcDbEntity
  8
0
 62
     0
100
AcDbLine
 10
4.025897146868731
 20
6.439283214692174
 30
0.0
 11
3.963897146868721
 21
6.501283214692183
 31
0.0
  0
LINE
  5
34C
330
32
100
AcDbEntity
  8
0
 62
     0
100
AcDbLine
 10
4.311204612078123
 20
6.083265071364128
 30
0.0
 11
4.150900161076311
 21
6.243569522365939
 31
0.0
  0
LINE
  5
34D
330
32
100
AcDbEntity
  8
0
 62
     0
100
AcDbLine
 10
3.838897146868739
 20
6.555572536573511
 30
0.0
 11
3.77689714686873
 21
6.61757253657352
 31
0.0
  0
LINE
  5
34E
330
32
100
AcDbEntity
  8
0
 62
     0
100
AcDbLine
 10
4.064204612078122
 20
6.330265071364129
 30
0.0
 11
3.963897146868721
 21
6.430572536573529
 31
0.0
  0
LINE
  5
34F
330
32
100
AcDbEntity
  8
0
 62
     0
100
AcDbLine
 10
3.993493933959466
 20
6.330265071364129
 30
0.0
 11
3.931493933959466
 21
6.392265071364128
 31
0.0
  0
LINE
  5
350
330
32
100
AcDbEntity
  8
0
 62
     0
100
AcDbLine
 10
3.838897146868744
 20
6.48486185845485
 30
0.0
 11
3.77689714686873
 21
6.546861858454865
 31
0.0
  0
LINE
  5
351
330
32
100
AcDbEntity
  8
0
 62
     0
100
AcDbLine
 10
3.922783255840811
 20
6.330265071364129
 30
0.0
 11
3.860783255840814
 21
6.392265071364127
 31
0.0
  0
LINE
  5
352
330
32
100
AcDbEntity
  8
0
 62
     0
100
AcDbLine
 10
3.83889714686875
 20
6.41415118033619
 30
0.0
 11
3.776897146868729
 21
6.476151180336211
 31
0.0
  0
LINE
  5
353
330
32
100
AcDbEntity
  8
0
 62
     0
100
AcDbLine
 10
3.852172100692939
 20
6.330165548393346
 30
0.0
 11
3.776897146868728
 21
6.405440502217557
 31
0.0
  0
LINE
  5
354
330
32
100
AcDbEntity
  8
0
 62
     0
100
AcDbLine
 10
3.838897146868717
 20
6.272729824098915
 30
0.0
 11
3.776897146868728
 21
6.334729824098904
 31
0.0
  0
LINE
  5
355
330
32
100
AcDbEntity
  8
0
 62
     0
100
AcDbLine
 10
3.821113956901001
 20
6.219802335947974
 30
0.0
 11
3.776146646091173
 21
6.264769646757802
 31
0.0
  0
LINE
  5
356
330
32
100
AcDbEntity
  8
0
 62
     0
100
AcDbLine
 10
3.785852647998747
 20
6.184352966731574
 30
0.0
 11
3.742011872515728
 21
6.228193742214592
 31
0.0
  0
LINE
  5
357
330
32
100
AcDbEntity
  8
0
 62
     0
100
AcDbLine
 10
3.750591339096493
 20
6.148903597515174
 30
0.0
 11
3.706750563613474
 21
6.192744372998192
 31
0.0
  0
LINE
  5
358
330
32
100
AcDbEntity
  8
0
 62
     0
100
AcDbLine
 10
3.715330030194239
 20
6.113454228298773
 30
0.0
 11
3.67148925471122
 21
6.157295003781791
 31
0.0
  0
LINE
  5
359
330
32
100
AcDbEntity
  8
0
 62
     0
100
AcDbLine
 10
3.67480850901023
 20
6.083265071364128
 30
0.0
 11
3.612808509010227
 21
6.145265071364129
 31
0.0
  0
LINE
  5
35A
330
32
100
AcDbEntity
  8
0
 62
     0
100
AcDbLine
 10
3.604097830891574
 20
6.083265071364128
 30
0.0
 11
3.542097830891572
 21
6.145265071364129
 31
0.0
  0
LINE
  5
35B
330
32
100
AcDbEntity
  8
0
 62
     0
100
AcDbLine
 10
3.53338715277292
 20
6.083265071364128
 30
0.0
 11
3.471387152772918
 21
6.145265071364129
 31
0.0
  0
LINE
  5
35C
330
32
100
AcDbEntity
  8
0
 62
     0
100
AcDbLine
 10
3.462676474654265
 20
6.083265071364128
 30
0.0
 11
3.400676474654265
 21
6.145265071364128
 31
0.0
  0
LINE
  5
35D
330
32
100
AcDbEntity
  8
0
 62
     0
100
AcDbLine
 10
3.391965796535611
 20
6.083265071364128
 30
0.0
 11
3.32996579653561
 21
6.145265071364128
 31
0.0
  0
LINE
  5
35E
330
32
100
AcDbEntity
  8
0
 62
     0
100
AcDbLine
 10
3.321255118416956
 20
6.083265071364128
 30
0.0
 11
3.276897146868721
 21
6.127623042912364
 31
0.0
  0
ENDBLK
  5
35F
330
32
100
AcDbEntity
  8
OBJ2
100
AcDbBlockEnd
  0
BLOCK
  5
360
330
33
100
AcDbEntity
  8
TEXT
100
AcDbBlockBegin
  2
BE
 70
     0
 10
0.0
 20
0.0
 30
0.0
  3
BE
  1

  0
LINE
  5
361
330
33
100
AcDbEntity
  8
TEXT
100
AcDbLine
 10
-3.129999999999999
 20
-0.1799999999999997
 30
0.0
 11
2.900000000000002
 21
-0.1799999999999997
 31
0.0
  0
LINE
  5
362
330
33
100
AcDbEntity
  8
TEXT
100
AcDbLine
 10
-3.379999999999999
 20
-0.0499999999999998
 30
0.0
 11
3.129999999999999
 21
-0.0499999999999998
 31
0.0
  0
TEXT
  5
363
330
33
100
AcDbEntity
  8
TEXT
100
AcDbText
 10
-3.244880000000001
 20
0.1426400000000099
 30
0.0
 40
0.576
  1
SECTION B-B
  7
ROMANT
100
AcDbText
  0
TEXT
  5
365
330
33
100
AcDbEntity
  8
TEXT
100
AcDbText
 10
-2.346143712916378
 20
-0.7795341998901681
 30
0.0
 40
0.36
  1
(FROM SHEET 1)
  7
SIMPLEX
 72
     4
 11
-0.1347151414878063
 21
-0.6252484856044536
 31
0.0
100
AcDbText
  0
ENDBLK
  5
366
330
33
100
AcDbEntity
  8
TEXT
100
AcDbBlockEnd
  0
BLOCK
  5
367
330
34
100
AcDbEntity
  8
TEXT
100
AcDbBlockBegin
  2
BB
 70
     0
 10
0.0
 20
0.0
 30
0.0
  3
BB
  1

  0
LWPOLYLINE
  5
368
330
34
100
AcDbEntity
  8
DIM
100
AcDbPolyline
 90
        4
 70
     0
 10
1.270232942854839
 20
-2.489199589393493
 40
0.0
 41
0.5832007290000001
 10
0.2982317278548265
 20
-2.489199589393493
 40
0.06804008505
 41
0.06804008505
 10
-0.1877688796451764
 20
-2.489199589393493
 40
0.06804008505
 41
0.06804008505
 10
-0.1877688796451764
 20
-1.031197766893498
 40
0.06804008505
 41
0.06804008505
  0
LWPOLYLINE
  5
36E
330
34
100
AcDbEntity
  8
DIM
100
AcDbPolyline
 90
        4
 70
     0
 10
1.270232942854839
 20
2.137995226237315
 40
0.0
 41
0.5832007290000001
 10
0.2982317278548265
 20
2.137995226237315
 40
0.06804008505
 41
0.06804008505
 10
-0.1877688796451764
 20
2.137995226237315
 40
0.06804008505
 41
0.06804008505
 10
-0.1877688796451764
 20
0.6799934037373064
 40
0.06804008505
 41
0.06804008505
  0
TEXT
  5
374
330
34
100
AcDbEntity
  8
TEXT
100
AcDbText
 10
1.59850472524311
 20
1.930805543021698
 30
0.0
 40
0.5808
  1
B
  7
ROMANT
100
AcDbText
  0
TEXT
  5
375
330
34
100
AcDbEntity
  8
TEXT
100
AcDbText
 10
1.59850472524311
 20
-2.729059690593246
 30
0.0
 40
0.5808
  1
B
  7
ROMANT
100
AcDbText
  0
ENDBLK
  5
376
330
34
100
AcDbEntity
  8
TEXT
100
AcDbBlockEnd
  0
BLOCK
  5
377
330
35
100
AcDbEntity
  8
TEXT
100
AcDbBlockBegin
  2
B1B
 70
     0
 10
0.0
 20
0.0
 30
0.0
  3
B1B
  1

  0
TEXT
  5
378
330
35
100
AcDbEntity
  8
TEXT
100
AcDbText
 10
-1.900678078714243
 20
-0.8195256950244704
 30
0.0
 40
0.28800036
  1
BORDER OPTIONS)
  7
SIMPLEX
100
AcDbText
  0
TEXT
  5
379
330
35
100
AcDbEntity
  8
TEXT
100
AcDbText
 10
-2.109404789521462
 20
-0.2625009471042983
 30
0.0
 40
0.28800036
  1
(SEE SHEET 2 FOR
  7
SIMPLEX
100
AcDbText
  0
TEXT
  5
37A
330
35
100
AcDbEntity
  8
TEXT
100
AcDbText
 10
-2.968444081838633
 20
0.5824058499496854
 30
0.0
 40
0.5808
  1
SECTION B-B
  7
ROMANT
100
AcDbText
  0
LINE
  5
37B
330
35
100
AcDbEntity
  8
TEXT
100
AcDbLine
 10
-3.153985193324366
 20
0.3857370142157954
 30
0.0
 11
3.401923886539165
 21
0.3857370142157954
 31
0.0
  0
LINE
  5
37C
330
35
100
AcDbEntity
  8
TEXT
100
AcDbLine
 10
-2.934790664818279
 20
0.2263232199418734
 30
0.0
 11
3.222582908670545
 21
0.2263232199418734
 31
0.0
  0
ENDBLK
  5
37D
330
35
100
AcDbEntity
  8
TEXT
100
AcDbBlockEnd
  0
BLOCK
  5
37E
330
36
100
AcDbEntity
  8
TEXT
100
AcDbBlockBegin
  2
*D20
 70
     1
 10
0.0
 20
0.0
 30
0.0
  3
*D20
  1

  0
LINE
  5
37F
330
36
100
AcDbEntity
  8
0
  6
ByBlock
 62
     0
100
AcDbLine
 10
4.313866360051562
 20
5.851580995790707
 30
0.0
 11
4.313866360051562
 21
6.198999999999996
 31
0.0
  0
LINE
  5
380
330
36
100
AcDbEntity
  8
0
  6
ByBlock
 62
     0
100
AcDbLine
 10
5.313866360051633
 20
5.851580995790707
 30
0.0
 11
5.313866360051633
 21
6.198999999999996
 31
0.0
  0
LINE
  5
381
330
36
100
AcDbEntity
  8
0
  6
ByBlock
 62
     0
100
AcDbLine
 10
5.493866360051633
 20
6.018999999999996
 30
0.0
 11
5.673866360051634
 21
6.018999999999996
 31
0.0
  0
LINE
  5
382
330
36
100
AcDbEntity
  8
0
  6
ByBlock
 62
     0
100
AcDbLine
 10
4.133866360051563
 20
6.018999999999996
 30
0.0
 11
3.953866360051562
 21
6.018999999999996
 31
0.0
  0
SOLID
  5
383
330
36
100
AcDbEntity
  8
0
  6
ByBlock
 62
     0
100
AcDbTrace
 10
5.493866360051633
 20
5.988999999999996
 30
0.0
 11
5.493866360051633
 21
6.048999999999996
 31
0.0
 12
5.313866360051633
 22
6.018999999999996
 32
0.0
 13
5.313866360051633
 23
6.018999999999996
 33
0.0
  0
SOLID
  5
384
330
36
100
AcDbEntity
  8
0
  6
ByBlock
 62
     0
100
AcDbTrace
 10
4.133866360051563
 20
5.988999999999996
 30
0.0
 11
4.133866360051563
 21
6.048999999999996
 31
0.0
 12
4.313866360051562
 22
6.018999999999996
 32
0.0
 13
4.313866360051562
 23
6.018999999999996
 33
0.0
  0
TEXT
  5
385
330
36
100
AcDbEntity
  8
0
  6
ByBlock
 62
     0
100
AcDbText
 10
4.599580645765883
 20
5.943999999999996
 30
0.0
 40
0.15
  1
1.00
  7
SIMPLEX
100
AcDbText
  0
POINT
  5
386
330
36
100
AcDbEntity
  8
DEFPOINTS
  6
ByBlock
 62
     0
100
AcDbPoint
 10
4.313866360051562
 20
5.726580995790707
 30
0.0
  0
POINT
  5
387
330
36
100
AcDbEntity
  8
DEFPOINTS
  6
ByBlock
 62
     0
100
AcDbPoint
 10
5.313866360051633
 20
5.726580995790707
 30
0.0
  0
POINT
  5
388
330
36
100
AcDbEntity
  8
DEFPOINTS
  6
ByBlock
 62
     0
100
AcDbPoint
 10
5.313866360051633
 20
6.018999999999996
 30
0.0
  0
ENDBLK
  5
389
330
36
100
AcDbEntity
  8
TEXT
100
AcDbBlockEnd
  0
BLOCK
  5
38A
330
37
100
AcDbEntity
  8
TEXT
100
AcDbBlockBegin
  2
*D21
 70
     1
 10
0.0
 20
0.0
 30
0.0
  3
*D21
  1

  0
LINE
  5
38B
330
37
100
AcDbEntity
  8
0
  6
ByBlock
 62
     0
100
AcDbLine
 10
1.877866360051555
 20
5.851080995790708
 30
0.0
 11
1.877866360051555
 21
6.198499999999997
 31
0.0
  0
LINE
  5
38C
330
37
100
AcDbEntity
  8
0
  6
ByBlock
 62
     0
100
AcDbLine
 10
2.877866360051626
 20
5.851080995790708
 30
0.0
 11
2.877866360051626
 21
6.198499999999997
 31
0.0
  0
LINE
  5
38D
330
37
100
AcDbEntity
  8
0
  6
ByBlock
 62
     0
100
AcDbLine
 10
3.057866360051626
 20
6.018499999999997
 30
0.0
 11
3.237866360051626
 21
6.018499999999997
 31
0.0
  0
LINE
  5
38E
330
37
100
AcDbEntity
  8
0
  6
ByBlock
 62
     0
100
AcDbLine
 10
1.697866360051555
 20
6.018499999999997
 30
0.0
 11
1.517866360051555
 21
6.018499999999997
 31
0.0
  0
SOLID
  5
38F
330
37
100
AcDbEntity
  8
0
  6
ByBlock
 62
     0
100
AcDbTrace
 10
3.057866360051626
 20
5.988499999999997
 30
0.0
 11
3.057866360051626
 21
6.048499999999997
 31
0.0
 12
2.877866360051626
 22
6.018499999999997
 32
0.0
 13
2.877866360051626
 23
6.018499999999997
 33
0.0
  0
SOLID
  5
390
330
37
100
AcDbEntity
  8
0
  6
ByBlock
 62
     0
100
AcDbTrace
 10
1.697866360051555
 20
5.988499999999997
 30
0.0
 11
1.697866360051555
 21
6.048499999999997
 31
0.0
 12
1.877866360051555
 22
6.018499999999997
 32
0.0
 13
1.877866360051555
 23
6.018499999999997
 33
0.0
  0
TEXT
  5
391
330
37
100
AcDbEntity
  8
0
  6
ByBlock
 62
     0
100
AcDbText
 10
2.163580645765876
 20
5.943499999999997
 30
0.0
 40
0.15
  1
1.00
  7
SIMPLEX
100
AcDbText
  0
POINT
  5
392
330
37
100
AcDbEntity
  8
DEFPOINTS
  6
ByBlock
 62
     0
100
AcDbPoint
 10
1.877866360051555
 20
5.726080995790708
 30
0.0
  0
POINT
  5
393
330
37
100
AcDbEntity
  8
DEFPOINTS
  6
ByBlock
 62
     0
100
AcDbPoint
 10
2.877866360051626
 20
5.726080995790708
 30
0.0
  0
POINT
  5
394
330
37
100
AcDbEntity
  8
DEFPOINTS
  6
ByBlock
 62
     0
100
AcDbPoint
 10
2.877866360051626
 20
6.018499999999997
 30
0.0
  0
ENDBLK
  5
395
330
37
100
AcDbEntity
  8
TEXT
100
AcDbBlockEnd
  0
BLOCK
  5
396
330
38
100
AcDbEntity
  8
TEXT
100
AcDbBlockBegin
  2
*D22
 70
     1
 10
0.0
 20
0.0
 30
0.0
  3
*D22
  1

  0
LINE
  5
397
330
38
100
AcDbEntity
  8
0
  6
ByBlock
 62
     0
100
AcDbLine
 10
12.62386636005164
 20
5.851580995790705
 30
0.0
 11
12.62386636005164
 21
6.274999999999996
 31
0.0
  0
LINE
  5
398
330
38
100
AcDbEntity
  8
0
  6
ByBlock
 62
     0
100
AcDbLine
 10
11.62386636005165
 20
5.826720675850623
 30
0.0
 11
11.62386636005165
 21
6.274999999999996
 31
0.0
  0
LINE
  5
399
330
38
100
AcDbEntity
  8
0
  6
ByBlock
 62
     0
100
AcDbLine
 10
11.44386636005165
 20
6.094999999999997
 30
0.0
 11
11.26386636005165
 21
6.094999999999997
 31
0.0
  0
LINE
  5
39A
330
38
100
AcDbEntity
  8
0
  6
ByBlock
 62
     0
100
AcDbLine
 10
12.80386636005164
 20
6.094999999999997
 30
0.0
 11
12.98386636005164
 21
6.094999999999997
 31
0.0
  0
SOLID
  5
39B
330
38
100
AcDbEntity
  8
0
  6
ByBlock
 62
     0
100
AcDbTrace
 10
11.44386636005165
 20
6.064999999999996
 30
0.0
 11
11.44386636005165
 21
6.124999999999997
 31
0.0
 12
11.62386636005165
 22
6.094999999999997
 32
0.0
 13
11.62386636005165
 23
6.094999999999997
 33
0.0
  0
SOLID
  5
39C
330
38
100
AcDbEntity
  8
0
  6
ByBlock
 62
     0
100
AcDbTrace
 10
12.80386636005164
 20
6.064999999999996
 30
0.0
 11
12.80386636005164
 21
6.124999999999997
 31
0.0
 12
12.62386636005164
 22
6.094999999999997
 32
0.0
 13
12.62386636005164
 23
6.094999999999997
 33
0.0
  0
TEXT
  5
39D
330
38
100
AcDbEntity
  8
0
  6
ByBlock
 62
     0
100
AcDbText
 10
11.90958064576593
 20
6.019999999999996
 30
0.0
 40
0.15
  1
1.00
  7
SIMPLEX
100
AcDbText
  0
POINT
  5
39E
330
38
100
AcDbEntity
  8
DEFPOINTS
  6
ByBlock
 62
     0
100
AcDbPoint
 10
12.62386636005164
 20
5.726580995790705
 30
0.0
  0
POINT
  5
39F
330
38
100
AcDbEntity
  8
DEFPOINTS
  6
ByBlock
 62
     0
100
AcDbPoint
 10
11.62386636005165
 20
5.701720675850623
 30
0.0
  0
POINT
  5
3A0
330
38
100
AcDbEntity
  8
DEFPOINTS
  6
ByBlock
 62
     0
100
AcDbPoint
 10
11.62386636005165
 20
6.094999999999997
 30
0.0
  0
ENDBLK
  5
3A1
330
38
100
AcDbEntity
  8
TEXT
100
AcDbBlockEnd
  0
BLOCK
  5
3A2
330
39
100
AcDbEntity
  8
TEXT
100
AcDbBlockBegin
  2
*D23
 70
     1
 10
0.0
 20
0.0
 30
0.0
  3
*D23
  1

  0
LINE
  5
3A3
330
39
100
AcDbEntity
  8
0
  6
ByBlock
 62
     0
100
AcDbLine
 10
10.18282739634887
 20
5.851080995790699
 30
0.0
 11
10.18282739634887
 21
6.27449999999999
 31
0.0
  0
LINE
  5
3A4
330
39
100
AcDbEntity
  8
0
  6
ByBlock
 62
     0
100
AcDbLine
 10
9.18282739634888
 20
5.826220675850617
 30
0.0
 11
9.18282739634888
 21
6.27449999999999
 31
0.0
  0
LINE
  5
3A5
330
39
100
AcDbEntity
  8
0
  6
ByBlock
 62
     0
100
AcDbLine
 10
9.00282739634888
 20
6.094499999999991
 30
0.0
 11
8.822827396348881
 21
6.094499999999991
 31
0.0
  0
LINE
  5
3A6
330
39
100
AcDbEntity
  8
0
  6
ByBlock
 62
     0
100
AcDbLine
 10
10.36282739634887
 20
6.094499999999991
 30
0.0
 11
10.54282739634887
 21
6.094499999999991
 31
0.0
  0
SOLID
  5
3A7
330
39
100
AcDbEntity
  8
0
  6
ByBlock
 62
     0
100
AcDbTrace
 10
9.00282739634888
 20
6.06449999999999
 30
0.0
 11
9.00282739634888
 21
6.124499999999991
 31
0.0
 12
9.18282739634888
 22
6.094499999999991
 32
0.0
 13
9.18282739634888
 23
6.094499999999991
 33
0.0
  0
SOLID
  5
3A8
330
39
100
AcDbEntity
  8
0
  6
ByBlock
 62
     0
100
AcDbTrace
 10
10.36282739634887
 20
6.06449999999999
 30
0.0
 11
10.36282739634887
 21
6.124499999999991
 31
0.0
 12
10.18282739634887
 22
6.094499999999991
 32
0.0
 13
10.18282739634887
 23
6.094499999999991
 33
0.0
  0
TEXT
  5
3A9
330
39
100
AcDbEntity
  8
0
  6
ByBlock
 62
     0
100
AcDbText
 10
9.468541682063161
 20
6.01949999999999
 30
0.0
 40
0.15
  1
1.00
  7
SIMPLEX
100
AcDbText
  0
POINT
  5
3AA
330
39
100
AcDbEntity
  8
DEFPOINTS
  6
ByBlock
 62
     0
100
AcDbPoint
 10
10.18282739634887
 20
5.726080995790699
 30
0.0
  0
POINT
  5
3AB
330
39
100
AcDbEntity
  8
DEFPOINTS
  6
ByBlock
 62
     0
100
AcDbPoint
 10
9.18282739634888
 20
5.701220675850617
 30
0.0
  0
POINT
  5
3AC
330
39
100
AcDbEntity
  8
DEFPOINTS
  6
ByBlock
 62
     0
100
AcDbPoint
 10
9.18282739634888
 20
6.094499999999991
 30
0.0
  0
ENDBLK
  5
3AD
330
39
100
AcDbEntity
  8
TEXT
100
AcDbBlockEnd
  0
BLOCK
  5
3AE
330
3C
100
AcDbEntity
  8
TEXT
100
AcDbBlockBegin
  2
*X26
 70
     1
 10
0.0
 20
0.0
 30
0.0
  3
*X26
  1

  0
LINE
  5
3AF
330
3C
100
AcDbEntity
  8
0
 62
     0
100
AcDbLine
 10
6.000866360051621
 20
13.07193417191709
 30
0.0
 11
6.062866360051626
 21
13.1339341719171
 31
0.0
  0
LINE
  5
3B0
330
3C
100
AcDbEntity
  8
0
 62
     0
100
AcDbLine
 10
6.000866360051621
 20
13.16032251956541
 30
0.0
 11
6.062866360051626
 21
13.22232251956542
 31
0.0
  0
LINE
  5
3B1
330
3C
100
AcDbEntity
  8
0
 62
     0
100
AcDbLine
 10
6.000866360051621
 20
13.24871086721373
 30
0.0
 11
6.062866360051626
 21
13.31071086721373
 31
0.0
  0
LINE
  5
3B2
330
3C
100
AcDbEntity
  8
0
 62
     0
100
AcDbLine
 10
6.000866360051621
 20
13.33709921486205
 30
0.0
 11
6.062866360051626
 21
13.39909921486205
 31
0.0
  0
LINE
  5
3B3
330
3C
100
AcDbEntity
  8
0
 62
     0
100
AcDbLine
 10
6.000866360051621
 20
13.42548756251037
 30
0.0
 11
6.062866360051626
 21
13.48748756251037
 31
0.0
  0
LINE
  5
3B4
330
3C
100
AcDbEntity
  8
0
 62
     0
100
AcDbLine
 10
6.000866360051621
 20
13.51387591015869
 30
0.0
 11
6.062866360051626
 21
13.57587591015869
 31
0.0
  0
LINE
  5
3B5
330
3C
100
AcDbEntity
  8
0
 62
     0
100
AcDbLine
 10
6.126366360051624
 20
13.63937591015869
 30
0.0
 11
6.187866360051626
 21
13.70087591015869
 31
0.0
  0
LINE
  5
3B6
330
3C
100
AcDbEntity
  8
0
 62
     0
100
AcDbLine
 10
6.000866360051621
 20
13.602264257807
 30
0.0
 11
6.063175033144931
 21
13.66457293090031
 31
0.0
  0
LINE
  5
3B7
330
3C
100
AcDbEntity
  8
0
 62
     0
100
AcDbLine
 10
6.07474921253911
 20
13.67614711029449
 30
0.0
 11
6.137057885632412
 21
13.73845578338779
 31
0.0
  0
LINE
  5
3B8
330
3C
100
AcDbEntity
  8
0
 62
     0
100
AcDbLine
 10
5.86168697383114
 20
13.55147321923484
 30
0.0
 11
5.875848924204578
 21
13.56563516960828
 31
0.0
  0
LINE
  5
3B9
330
3C
100
AcDbEntity
  8
0
 62
     0
100
AcDbLine
 10
5.986653677038128
 20
13.67643992244183
 30
0.0
 11
6.048669537984094
 21
13.73845578338779
 31
0.0
  0
LINE
  5
3BA
330
3C
100
AcDbEntity
  8
0
 62
     0
100
AcDbLine
 10
5.813866360051624
 20
13.59204095310365
 30
0.0
 11
5.875866360051628
 21
13.65404095310365
 31
0.0
  0
LINE
  5
3BB
330
3C
100
AcDbEntity
  8
0
 62
     0
100
AcDbLine
 10
5.898281190335778
 20
13.6764557833878
 30
0.0
 11
5.960281190335775
 21
13.73845578338779
 31
0.0
  0
LINE
  5
3BC
330
3C
100
AcDbEntity
  8
0
 62
     0
100
AcDbLine
 10
5.813866360051629
 20
13.68042930075197
 30
0.0
 11
5.871892842687456
 21
13.73845578338779
 31
0.0
  0
LINE
  5
3BD
330
3C
100
AcDbEntity
  8
0
 62
     0
100
AcDbLine
 10
6.000866360051621
 20
12.98354582426878
 30
0.0
 11
6.070608323453452
 21
13.05328778767061
 31
0.0
  0
LINE
  5
3BE
330
3C
100
AcDbEntity
  8
0
 62
     0
100
AcDbLine
 10
6.127446830106238
 20
13.11012629432339
 30
0.0
 11
6.135695849116028
 21
13.11837531333318
 31
0.0
  0
LINE
  5
3BF
330
3C
100
AcDbEntity
  8
0
 62
     0
100
AcDbLine
 10
6.000866360051621
 20
12.89515747662046
 30
0.0
 11
6.062866360051626
 21
12.95715747662046
 31
0.0
  0
LINE
  5
3C0
330
3C
100
AcDbEntity
  8
0
 62
     0
100
AcDbLine
 10
6.095164666818961
 20
12.9894557833878
 30
0.0
 11
6.187866360051625
 21
13.08215747662046
 31
0.0
  0
LINE
  5
3C1
330
3C
100
AcDbEntity
  8
0
 62
     0
100
AcDbLine
 10
5.813866360051629
 20
12.61976912897215
 30
0.0
 11
5.869393507215328
 21
12.67529627613585
 31
0.0
  0
LINE
  5
3C2
330
3C
100
AcDbEntity
  8
0
 62
     0
100
AcDbLine
 10
6.126816850905921
 20
12.93271961982644
 30
0.0
 11
6.187866360051625
 21
12.99376912897214
 31
0.0
  0
LINE
  5
3C3
330
3C
100
AcDbEntity
  8
0
 62
     0
100
AcDbLine
 10
6.000866360051621
 20
12.80676912897214
 30
0.0
 11
6.062866360051626
 21
12.86876912897214
 31
0.0
  0
LINE
  5
3C4
330
3C
100
AcDbEntity
  8
0
 62
     0
100
AcDbLine
 10
5.337441362115603
 20
12.0549557833878
 30
0.0
 11
5.399441362115602
 21
12.1169557833878
 31
0.0
  0
LINE
  5
3C5
330
3C
100
AcDbEntity
  8
0
 62
     0
100
AcDbLine
 10
6.000866360051621
 20
12.71838078132382
 30
0.0
 11
6.062866360051626
 21
12.78038078132382
 31
0.0
  0
LINE
  5
3C6
330
3C
100
AcDbEntity
  8
0
 62
     0
100
AcDbLine
 10
5.813866360051627
 20
12.53138078132383
 30
0.0
 11
5.875866360051632
 21
12.59338078132383
 31
0.0
  0
LINE
  5
3C7
330
3C
100
AcDbEntity
  8
0
 62
     0
100
AcDbLine
 10
5.425829709763921
 20
12.0549557833878
 30
0.0
 11
5.487829709763921
 21
12.1169557833878
 31
0.0
  0
LINE
  5
3C8
330
3C
100
AcDbEntity
  8
0
 62
     0
100
AcDbLine
 10
6.000866360051621
 20
12.6299924336755
 30
0.0
 11
6.062866360051626
 21
12.69199243367551
 31
0.0
  0
LINE
  5
3C9
330
3C
100
AcDbEntity
  8
0
 62
     0
100
AcDbLine
 10
5.813866360051626
 20
12.44299243367551
 30
0.0
 11
5.875866360051636
 21
12.50499243367552
 31
0.0
  0
LINE
  5
3CA
330
3C
100
AcDbEntity
  8
0
 62
     0
100
AcDbLine
 10
5.514218057412239
 20
12.0549557833878
 30
0.0
 11
5.576218057412239
 21
12.1169557833878
 31
0.0
  0
LINE
  5
3CB
330
3C
100
AcDbEntity
  8
0
 62
     0
100
AcDbLine
 10
6.000866360051621
 20
12.54160408602718
 30
0.0
 11
6.062866360051626
 21
12.60360408602719
 31
0.0
  0
LINE
  5
3CC
330
3C
100
AcDbEntity
  8
0
 62
     0
100
AcDbLine
 10
5.813866360051624
 20
12.35460408602718
 30
0.0
 11
5.875866360051641
 21
12.4166040860272
 31
0.0
  0
LINE
  5
3CD
330
3C
100
AcDbEntity
  8
0
 62
     0
100
AcDbLine
 10
5.602606405060558
 20
12.0549557833878
 30
0.0
 11
5.664606405060557
 21
12.1169557833878
 31
0.0
  0
LINE
  5
3CE
330
3C
100
AcDbEntity
  8
0
 62
     0
100
AcDbLine
 10
6.000866360051621
 20
12.45321573837887
 30
0.0
 11
6.062866360051626
 21
12.51521573837887
 31
0.0
  0
LINE
  5
3CF
330
3C
100
AcDbEntity
  8
0
 62
     0
100
AcDbLine
 10
5.813866360051623
 20
12.26621573837887
 30
0.0
 11
5.912106405060558
 21
12.3644557833878
 31
0.0
  0
LINE
  5
3D0
330
3C
100
AcDbEntity
  8
0
 62
     0
100
AcDbLine
 10
5.690994752708875
 20
12.0549557833878
 30
0.0
 11
5.875866360051628
 21
12.23982739073055
 31
0.0
  0
LINE
  5
3D1
330
3C
100
AcDbEntity
  8
0
 62
     0
100
AcDbLine
 10
5.937994752708876
 20
12.3019557833878
 30
0.0
 11
6.062866360051626
 21
12.42682739073055
 31
0.0
  0
LINE
  5
3D2
330
3C
100
AcDbEntity
  8
0
 62
     0
100
AcDbLine
 10
5.779383100357193
 20
12.0549557833878
 30
0.0
 11
5.841383100357192
 21
12.1169557833878
 31
0.0
  0
LINE
  5
3D3
330
3C
100
AcDbEntity
  8
0
 62
     0
100
AcDbLine
 10
6.126366360051624
 20
12.40193904308223
 30
0.0
 11
6.156883100357192
 21
12.4324557833878
 31
0.0
  0
LINE
  5
3D4
330
3C
100
AcDbEntity
  8
0
 62
     0
100
AcDbLine
 10
6.026383100357194
 20
12.3019557833878
 30
0.0
 11
6.088883100357193
 21
12.3644557833878
 31
0.0
  0
LINE
  5
3D5
330
3C
100
AcDbEntity
  8
0
 62
     0
100
AcDbLine
 10
5.867771448005512
 20
12.0549557833878
 30
0.0
 11
5.92977144800551
 21
12.1169557833878
 31
0.0
  0
LINE
  5
3D6
330
3C
100
AcDbEntity
  8
0
 62
     0
100
AcDbLine
 10
6.114771448005512
 20
12.3019557833878
 30
0.0
 11
6.187866360051632
 21
12.37505069543392
 31
0.0
  0
LINE
  5
3D7
330
3C
100
AcDbEntity
  8
0
 62
     0
100
AcDbLine
 10
5.95615979565383
 20
12.0549557833878
 30
0.0
 11
6.018159795653828
 21
12.1169557833878
 31
0.0
  0
LINE
  5
3D8
330
3C
100
AcDbEntity
  8
0
 62
     0
100
AcDbLine
 10
6.065866360051626
 20
12.16466234778559
 30
0.0
 11
6.08115979565384
 21
12.17995578338781
 31
0.0
  0
LINE
  5
3D9
330
3C
100
AcDbEntity
  8
0
 62
     0
100
AcDbLine
 10
6.044548143302147
 20
12.0549557833878
 30
0.0
 11
6.169548143302141
 21
12.17995578338779
 31
0.0
  0
LINE
  5
3DA
330
3C
100
AcDbEntity
  8
0
 62
     0
100
AcDbLine
 10
6.132936490950466
 20
12.0549557833878
 30
0.0
 11
6.187866360051633
 21
12.10988565248896
 31
0.0
  0
ENDBLK
  5
3DB
330
3C
100
AcDbEntity
  8
TEXT
100
AcDbBlockEnd
  0
BLOCK
  5
3DC
330
3D
100
AcDbEntity
  8
OBJ2
100
AcDbBlockBegin
  2
*X27
 70
     1
 10
0.0
 20
0.0
 30
0.0
  3
*X27
  1

  0
LINE
  5
3DD
330
3D
100
AcDbEntity
  8
0
 62
     0
100
AcDbLine
 10
1.190866360051638
 20
13.12804595897595
 30
0.0
 11
1.128866360051635
 21
13.19004595897595
 31
0.0
  0
LINE
  5
3DE
330
3D
100
AcDbEntity
  8
0
 62
     0
100
AcDbLine
 10
1.190866360051638
 20
13.03965761132763
 30
0.0
 11
1.128866360051635
 21
13.10165761132763
 31
0.0
  0
LINE
  5
3DF
330
3D
100
AcDbEntity
  8
0
 62
     0
100
AcDbLine
 10
1.190866360051638
 20
12.95126926367931
 30
0.0
 11
1.090679840343153
 21
13.05145578338779
 31
0.0
  0
LINE
  5
3E0
330
3D
100
AcDbEntity
  8
0
 62
     0
100
AcDbLine
 10
1.065366360051637
 20
13.07676926367931
 30
0.0
 11
1.022679840343152
 21
13.1194557833878
 31
0.0
  0
LINE
  5
3E1
330
3D
100
AcDbEntity
  8
0
 62
     0
100
AcDbLine
 10
1.190866360051638
 20
12.86288091603099
 30
0.0
 11
1.128866360051635
 21
12.92488091603099
 31
0.0
  0
LINE
  5
3E2
330
3D
100
AcDbEntity
  8
0
 62
     0
100
AcDbLine
 10
1.069206751453464
 20
12.98454052462917
 30
0.0
 11
1.003866360051635
 21
13.049880916031
 31
0.0
  0
LINE
  5
3E3
330
3D
100
AcDbEntity
  8
0
 62
     0
100
AcDbLine
 10
1.877866360051628
 20
12.08749256838268
 30
0.0
 11
1.84840314504651
 21
12.1169557833878
 31
0.0
  0
LINE
  5
3E4
330
3D
100
AcDbEntity
  8
0
 62
     0
100
AcDbLine
 10
1.043903145046515
 20
12.9214557833878
 30
0.0
 11
1.003866360051635
 21
12.96149256838267
 31
0.0
  0
LINE
  5
3E5
330
3D
100
AcDbEntity
  8
0
 62
     0
100
AcDbLine
 10
1.377866360051629
 20
12.58749256838268
 30
0.0
 11
1.31586636005163
 21
12.64949256838268
 31
0.0
  0
LINE
  5
3E6
330
3D
100
AcDbEntity
  8
0
 62
     0
100
AcDbLine
 10
1.190866360051638
 20
12.77449256838267
 30
0.0
 11
1.128866360051635
 21
12.83649256838268
 31
0.0
  0
LINE
  5
3E7
330
3D
100
AcDbEntity
  8
0
 62
     0
100
AcDbLine
 10
1.822014797398191
 20
12.0549557833878
 30
0.0
 11
1.760014797398192
 21
12.1169557833878
 31
0.0
  0
LINE
  5
3E8
330
3D
100
AcDbEntity
  8
0
 62
     0
100
AcDbLine
 10
1.190866360051638
 20
12.68610422073435
 30
0.0
 11
1.128866360051635
 21
12.74810422073436
 31
0.0
  0
LINE
  5
3E9
330
3D
100
AcDbEntity
  8
0
 62
     0
100
AcDbLine
 10
1.377866360051631
 20
12.49910422073436
 30
0.0
 11
1.315866360051625
 21
12.56110422073437
 31
0.0
  0
LINE
  5
3EA
330
3D
100
AcDbEntity
  8
0
 62
     0
100
AcDbLine
 10
1.733626449749873
 20
12.0549557833878
 30
0.0
 11
1.671626449749873
 21
12.1169557833878
 31
0.0
  0
LINE
  5
3EB
330
3D
100
AcDbEntity
  8
0
 62
     0
100
AcDbLine
 10
1.190866360051638
 20
12.59771587308604
 30
0.0
 11
1.128866360051635
 21
12.65971587308604
 31
0.0
  0
LINE
  5
3EC
330
3D
100
AcDbEntity
  8
0
 62
     0
100
AcDbLine
 10
1.377866360051632
 20
12.41071587308604
 30
0.0
 11
1.315866360051621
 21
12.47271587308605
 31
0.0
  0
LINE
  5
3ED
330
3D
100
AcDbEntity
  8
0
 62
     0
100
AcDbLine
 10
1.645238102101555
 20
12.0549557833878
 30
0.0
 11
1.583238102101555
 21
12.1169557833878
 31
0.0
  0
LINE
  5
3EE
330
3D
100
AcDbEntity
  8
0
 62
     0
100
AcDbLine
 10
1.190866360051638
 20
12.50932752543772
 30
0.0
 11
1.128866360051635
 21
12.57132752543772
 31
0.0
  0
LINE
  5
3EF
330
3D
100
AcDbEntity
  8
0
 62
     0
100
AcDbLine
 10
1.377866360051634
 20
12.32232752543772
 30
0.0
 11
1.315866360051616
 21
12.38432752543774
 31
0.0
  0
LINE
  5
3F0
330
3D
100
AcDbEntity
  8
0
 62
     0
100
AcDbLine
 10
1.556849754453237
 20
12.0549557833878
 30
0.0
 11
1.247349754453237
 21
12.3644557833878
 31
0.0
  0
LINE
  5
3F1
330
3D
100
AcDbEntity
  8
0
 62
     0
100
AcDbLine
 10
1.190866360051638
 20
12.4209391777894
 30
0.0
 11
1.128866360051635
 21
12.4829391777894
 31
0.0
  0
LINE
  5
3F2
330
3D
100
AcDbEntity
  8
0
 62
     0
100
AcDbLine
 10
1.468461406804919
 20
12.0549557833878
 30
0.0
 11
1.377635272351282
 21
12.14578191784144
 31
0.0
  0
LINE
  5
3F3
330
3D
100
AcDbEntity
  8
0
 62
     0
100
AcDbLine
 10
1.221461406804917
 20
12.3019557833878
 30
0.0
 11
1.128866360051635
 21
12.39455083014108
 31
0.0
  0
LINE
  5
3F4
330
3D
100
AcDbEntity
  8
0
 62
     0
100
AcDbLine
 10
1.380073059156601
 20
12.0549557833878
 30
0.0
 11
1.318073059156601
 21
12.1169557833878
 31
0.0
  0
LINE
  5
3F5
330
3D
100
AcDbEntity
  8
0
 62
     0
100
AcDbLine
 10
1.133073059156599
 20
12.3019557833878
 30
0.0
 11
1.007632838338254
 21
12.42739600420615
 31
0.0
  0
LINE
  5
3F6
330
3D
100
AcDbEntity
  8
0
 62
     0
100
AcDbLine
 10
1.291684711508283
 20
12.0549557833878
 30
0.0
 11
1.229684711508282
 21
12.1169557833878
 31
0.0
  0
LINE
  5
3F7
330
3D
100
AcDbEntity
  8
0
 62
     0
100
AcDbLine
 10
1.043624518154354
 20
12.30301597674173
 30
0.0
 11
1.004926553405551
 21
12.34171394149053
 31
0.0
  0
LINE
  5
3F8
330
3D
100
AcDbEntity
  8
0
 62
     0
100
AcDbLine
 10
1.203296363859965
 20
12.0549557833878
 30
0.0
 11
1.141296363859964
 21
12.1169557833878
 31
0.0
  0
LINE
  5
3F9
330
3D
100
AcDbEntity
  8
0
 62
     0
100
AcDbLine
 10
1.125866360051634
 20
12.13238578719613
 30
0.0
 11
1.07829636385996
 21
12.1799557833878
 31
0.0
  0
LINE
  5
3FA
330
3D
100
AcDbEntity
  8
0
 62
     0
100
AcDbLine
 10
1.114908016211647
 20
12.0549557833878
 30
0.0
 11
1.003900251340021
 21
12.16596354825942
 31
0.0
  0
LINE
  5
3FB
330
3D
100
AcDbEntity
  8
0
 62
     0
100
AcDbLine
 10
1.026519668563329
 20
12.0549557833878
 30
0.0
 11
1.003866360051627
 21
12.0776090918995
 31
0.0
  0
LINE
  5
3FC
330
3D
100
AcDbEntity
  8
0
 62
     0
100
AcDbLine
 10
1.190866360051638
 20
13.21643430662426
 30
0.0
 11
1.128866360051635
 21
13.27843430662427
 31
0.0
  0
LINE
  5
3FD
330
3D
100
AcDbEntity
  8
0
 62
     0
100
AcDbLine
 10
1.190866360051638
 20
13.30482265427258
 30
0.0
 11
1.128866360051635
 21
13.36682265427259
 31
0.0
  0
LINE
  5
3FE
330
3D
100
AcDbEntity
  8
0
 62
     0
100
AcDbLine
 10
1.190866360051638
 20
13.3932110019209
 30
0.0
 11
1.128866360051635
 21
13.4552110019209
 31
0.0
  0
LINE
  5
3FF
330
3D
100
AcDbEntity
  8
0
 62
     0
100
AcDbLine
 10
1.190866360051638
 20
13.48159934956922
 30
0.0
 11
1.128866360051635
 21
13.54359934956922
 31
0.0
  0
LINE
  5
400
330
3D
100
AcDbEntity
  8
0
 62
     0
100
AcDbLine
 10
1.060302182415157
 20
13.6121635272057
 30
0.0
 11
1.003866360051635
 21
13.66859934956923
 31
0.0
  0
LINE
  5
401
330
3D
100
AcDbEntity
  8
0
 62
     0
100
AcDbLine
 10
1.190866360051638
 20
13.56998769721754
 30
0.0
 11
1.128866360051635
 21
13.63198769721754
 31
0.0
  0
LINE
  5
402
330
3D
100
AcDbEntity
  8
0
 62
     0
100
AcDbLine
 10
1.084398273881383
 20
13.67645578338779
 30
0.0
 11
1.02239827388138
 21
13.73845578338779
 31
0.0
  0
LINE
  5
403
330
3D
100
AcDbEntity
  8
0
 62
     0
100
AcDbLine
 10
1.190866360051638
 20
13.65837604486586
 30
0.0
 11
1.110786621529699
 21
13.73845578338779
 31
0.0
  0
LINE
  5
404
330
3D
100
AcDbEntity
  8
0
 62
     0
100
AcDbLine
 10
1.376802955335559
 20
13.56082779723025
 30
0.0
 11
1.315866360051633
 21
13.62176439251418
 31
0.0
  0
LINE
  5
405
330
3D
100
AcDbEntity
  8
0
 62
     0
100
AcDbLine
 10
1.261174969178017
 20
13.67645578338779
 30
0.0
 11
1.199174969178017
 21
13.73845578338779
 31
0.0
  0
LINE
  5
406
330
3D
100
AcDbEntity
  8
0
 62
     0
100
AcDbLine
 10
1.377866360051631
 20
13.6481527401625
 30
0.0
 11
1.287563316826336
 21
13.73845578338779
 31
0.0
  0
ENDBLK
  5
407
330
3D
100
AcDbEntity
  8
OBJ2
100
AcDbBlockEnd
  0
BLOCK
  5
408
330
3E
100
AcDbEntity
  8
OBJ2
100
AcDbBlockBegin
  2
*X28
 70
     1
 10
0.0
 20
0.0
 30
0.0
  3
*X28
  1

  0
LINE
  5
409
330
3E
100
AcDbEntity
  8
0
 62
     0
100
AcDbLine
 10
8.49582739634887
 20
12.98254108219251
 30
0.0
 11
8.425422519154098
 21
13.05294595938728
 31
0.0
  0
LINE
  5
40A
330
3E
100
AcDbEntity
  8
0
 62
     0
100
AcDbLine
 10
8.369767879952769
 20
13.10860059858861
 30
0.0
 11
8.359472211549679
 21
13.1188962669917
 31
0.0
  0
LINE
  5
40B
330
3E
100
AcDbEntity
  8
0
 62
     0
100
AcDbLine
 10
8.49582739634887
 20
12.89415273454419
 30
0.0
 11
8.433827396348865
 21
12.95615273454419
 31
0.0
  0
LINE
  5
40C
330
3E
100
AcDbEntity
  8
0
 62
     0
100
AcDbLine
 10
8.400524347505269
 20
12.98945578338779
 30
0.0
 11
8.308827396348865
 21
13.08115273454419
 31
0.0
  0
LINE
  5
40D
330
3E
100
AcDbEntity
  8
0
 62
     0
100
AcDbLine
 10
8.682827396348864
 20
12.61876438689587
 30
0.0
 11
8.626718471358255
 21
12.67487331188648
 31
0.0
  0
LINE
  5
40E
330
3E
100
AcDbEntity
  8
0
 62
     0
100
AcDbLine
 10
8.369656547930352
 20
12.93193523531439
 30
0.0
 11
8.308827396348862
 21
12.99276438689588
 31
0.0
  0
LINE
  5
40F
330
3E
100
AcDbEntity
  8
0
 62
     0
100
AcDbLine
 10
8.49582739634887
 20
12.80576438689587
 30
0.0
 11
8.433827396348865
 21
12.86776438689588
 31
0.0
  0
LINE
  5
410
330
3E
100
AcDbEntity
  8
0
 62
     0
100
AcDbLine
 10
9.158247652208633
 20
12.05495578338779
 30
0.0
 11
9.096247652208631
 21
12.11695578338779
 31
0.0
  0
LINE
  5
411
330
3E
100
AcDbEntity
  8
0
 62
     0
100
AcDbLine
 10
8.495827396348872
 20
12.71737603924755
 30
0.0
 11
8.433827396348865
 21
12.77937603924756
 31
0.0
  0
LINE
  5
412
330
3E
100
AcDbEntity
  8
0
 62
     0
100
AcDbLine
 10
8.682827396348866
 20
12.53037603924756
 30
0.0
 11
8.620827396348863
 21
12.59237603924756
 31
0.0
  0
LINE
  5
413
330
3E
100
AcDbEntity
  8
0
 62
     0
100
AcDbLine
 10
9.069859304560315
 20
12.05495578338779
 30
0.0
 11
9.007859304560314
 21
12.11695578338779
 31
0.0
  0
LINE
  5
414
330
3E
100
AcDbEntity
  8
0
 62
     0
100
AcDbLine
 10
8.495827396348872
 20
12.62898769159923
 30
0.0
 11
8.433827396348867
 21
12.69098769159924
 31
0.0
  0
LINE
  5
415
330
3E
100
AcDbEntity
  8
0
 62
     0
100
AcDbLine
 10
8.682827396348866
 20
12.44198769159924
 30
0.0
 11
8.620827396348857
 21
12.50398769159924
 31
0.0
  0
LINE
  5
416
330
3E
100
AcDbEntity
  8
0
 62
     0
100
AcDbLine
 10
8.981470956911996
 20
12.05495578338779
 30
0.0
 11
8.919470956911995
 21
12.11695578338779
 31
0.0
  0
LINE
  5
417
330
3E
100
AcDbEntity
  8
0
 62
     0
100
AcDbLine
 10
8.495827396348872
 20
12.54059934395091
 30
0.0
 11
8.433827396348867
 21
12.60259934395092
 31
0.0
  0
LINE
  5
418
330
3E
100
AcDbEntity
  8
0
 62
     0
100
AcDbLine
 10
8.682827396348866
 20
12.35359934395092
 30
0.0
 11
8.620827396348854
 21
12.41559934395093
 31
0.0
  0
LINE
  5
419
330
3E
100
AcDbEntity
  8
0
 62
     0
100
AcDbLine
 10
8.893082609263677
 20
12.05495578338779
 30
0.0
 11
8.831082609263678
 21
12.11695578338779
 31
0.0
  0
LINE
  5
41A
330
3E
100
AcDbEntity
  8
0
 62
     0
100
AcDbLine
 10
8.495827396348872
 20
12.45221099630259
 30
0.0
 11
8.433827396348867
 21
12.5142109963026
 31
0.0
  0
LINE
  5
41B
330
3E
100
AcDbEntity
  8
0
 62
     0
100
AcDbLine
 10
8.682827396348868
 20
12.2652109963026
 30
0.0
 11
8.583582609263679
 21
12.36445578338779
 31
0.0
  0
LINE
  5
41C
330
3E
100
AcDbEntity
  8
0
 62
     0
100
AcDbLine
 10
8.80469426161536
 20
12.05495578338779
 30
0.0
 11
8.620827396348866
 21
12.23882264865428
 31
0.0
  0
LINE
  5
41D
330
3E
100
AcDbEntity
  8
0
 62
     0
100
AcDbLine
 10
8.557694261615356
 20
12.30195578338779
 30
0.0
 11
8.433827396348869
 21
12.42582264865428
 31
0.0
  0
LINE
  5
41E
330
3E
100
AcDbEntity
  8
0
 62
     0
100
AcDbLine
 10
8.71630591396704
 20
12.05495578338779
 30
0.0
 11
8.654305913967039
 21
12.11695578338779
 31
0.0
  0
LINE
  5
41F
330
3E
100
AcDbEntity
  8
0
 62
     0
100
AcDbLine
 10
8.370327396348866
 20
12.40093430100596
 30
0.0
 11
8.338805913967039
 21
12.43245578338779
 31
0.0
  0
LINE
  5
420
330
3E
100
AcDbEntity
  8
0
 62
     0
100
AcDbLine
 10
8.469305913967037
 20
12.30195578338779
 30
0.0
 11
8.406805913967041
 21
12.36445578338779
 31
0.0
  0
LINE
  5
421
330
3E
100
AcDbEntity
  8
0
 62
     0
100
AcDbLine
 10
8.627917566318723
 20
12.05495578338779
 30
0.0
 11
8.565917566318722
 21
12.11695578338779
 31
0.0
  0
LINE
  5
422
330
3E
100
AcDbEntity
  8
0
 62
     0
100
AcDbLine
 10
8.38091756631872
 20
12.30195578338779
 30
0.0
 11
8.308827396348862
 21
12.37404595335765
 31
0.0
  0
LINE
  5
423
330
3E
100
AcDbEntity
  8
0
 62
     0
100
AcDbLine
 10
8.539529218670404
 20
12.05495578338779
 30
0.0
 11
8.477529218670403
 21
12.11695578338779
 31
0.0
  0
LINE
  5
424
330
3E
100
AcDbEntity
  8
0
 62
     0
100
AcDbLine
 10
8.430827396348869
 20
12.16365760570933
 30
0.0
 11
8.414720889400042
 21
12.17976411265815
 31
0.0
  0
LINE
  5
425
330
3E
100
AcDbEntity
  8
0
 62
     0
100
AcDbLine
 10
8.451140871022085
 20
12.05495578338779
 30
0.0
 11
8.368827396348867
 21
12.13726925806101
 31
0.0
  0
LINE
  5
426
330
3E
100
AcDbEntity
  8
0
 62
     0
100
AcDbLine
 10
8.362752523373767
 20
12.05495578338779
 30
0.0
 11
8.300752523373766
 21
12.11695578338779
 31
0.0
  0
LINE
  5
427
330
3E
100
AcDbEntity
  8
0
 62
     0
100
AcDbLine
 10
8.274364175725448
 20
12.05495578338779
 30
0.0
 11
8.212364175725447
 21
12.11695578338779
 31
0.0
  0
LINE
  5
428
330
3E
100
AcDbEntity
  8
0
 62
     0
100
AcDbLine
 10
8.185975828077131
 20
12.05495578338779
 30
0.0
 11
8.126703060329434
 21
12.11422855113549
 31
0.0
  0
LINE
  5
429
330
3E
100
AcDbEntity
  8
0
 62
     0
100
AcDbLine
 10
8.49582739634887
 20
13.07092942984082
 30
0.0
 11
8.433827396348862
 21
13.13292942984084
 31
0.0
  0
LINE
  5
42A
330
3E
100
AcDbEntity
  8
0
 62
     0
100
AcDbLine
 10
8.495827396348868
 20
13.15931777748915
 30
0.0
 11
8.433827396348862
 21
13.22131777748915
 31
0.0
  0
LINE
  5
42B
330
3E
100
AcDbEntity
  8
0
 62
     0
100
AcDbLine
 10
8.495827396348868
 20
13.24770612513746
 30
0.0
 11
8.433827396348863
 21
13.30970612513747
 31
0.0
  0
LINE
  5
42C
330
3E
100
AcDbEntity
  8
0
 62
     0
100
AcDbLine
 10
8.495827396348868
 20
13.33609447278578
 30
0.0
 11
8.433827396348863
 21
13.39809447278579
 31
0.0
  0
LINE
  5
42D
330
3E
100
AcDbEntity
  8
0
 62
     0
100
AcDbLine
 10
8.495827396348866
 20
13.4244828204341
 30
0.0
 11
8.433827396348863
 21
13.48648282043411
 31
0.0
  0
LINE
  5
42E
330
3E
100
AcDbEntity
  8
0
 62
     0
100
AcDbLine
 10
8.495827396348866
 20
13.51287116808242
 30
0.0
 11
8.433827396348863
 21
13.57487116808242
 31
0.0
  0
LINE
  5
42F
330
3E
100
AcDbEntity
  8
0
 62
     0
100
AcDbLine
 10
8.370327396348868
 20
13.63837116808242
 30
0.0
 11
8.308827396348865
 21
13.69987116808242
 31
0.0
  0
LINE
  5
430
330
3E
100
AcDbEntity
  8
0
 62
     0
100
AcDbLine
 10
8.495827396348866
 20
13.60125951573074
 30
0.0
 11
8.43371648211556
 21
13.66337042996405
 31
0.0
  0
LINE
  5
431
330
3E
100
AcDbEntity
  8
0
 62
     0
100
AcDbLine
 10
8.420742042925121
 20
13.67634486915449
 30
0.0
 11
8.358631128691818
 21
13.73845578338779
 31
0.0
  0
LINE
  5
432
330
3E
100
AcDbEntity
  8
0
 62
     0
100
AcDbLine
 10
8.509107764954064
 20
13.67636749477386
 30
0.0
 11
8.447019476340138
 21
13.73845578338779
 31
0.0
  0
LINE
  5
433
330
3E
100
AcDbEntity
  8
0
 62
     0
100
AcDbLine
 10
8.682827396348864
 20
13.59103621102738
 30
0.0
 11
8.620827396348866
 21
13.65303621102738
 31
0.0
  0
LINE
  5
434
330
3E
100
AcDbEntity
  8
0
 62
     0
100
AcDbLine
 10
8.597407823988454
 20
13.67645578338779
 30
0.0
 11
8.535407823988457
 21
13.73845578338779
 31
0.0
  0
LINE
  5
435
330
3E
100
AcDbEntity
  8
0
 62
     0
100
AcDbLine
 10
8.682827396348864
 20
13.6794245586757
 30
0.0
 11
8.623796171636774
 21
13.73845578338779
 31
0.0
  0
ENDBLK
  5
436
330
3E
100
AcDbEntity
  8
OBJ2
100
AcDbBlockEnd
  0
BLOCK
  5
437
330
40
100
AcDbEntity
  8
OBJ2
100
AcDbBlockBegin
  2
*X30
 70
     1
 10
0.0
 20
0.0
 30
0.0
  3
*X30
  1

  0
LINE
  5
438
330
40
100
AcDbEntity
  8
0
 62
     0
100
AcDbLine
 10
6.000866360051624
 20
6.707973141238171
 30
0.0
 11
6.062866360051627
 21
6.769973141238175
 31
0.0
  0
LINE
  5
439
330
40
100
AcDbEntity
  8
0
 62
     0
100
AcDbLine
 10
6.000866360051624
 20
6.796361488886489
 30
0.0
 11
6.062866360051627
 21
6.858361488886493
 31
0.0
  0
LINE
  5
43A
330
40
100
AcDbEntity
  8
0
 62
     0
100
AcDbLine
 10
6.000866360051624
 20
6.884749836534808
 30
0.0
 11
6.062866360051627
 21
6.946749836534811
 31
0.0
  0
LINE
  5
43B
330
40
100
AcDbEntity
  8
0
 62
     0
100
AcDbLine
 10
6.000866360051624
 20
6.973138184183127
 30
0.0
 11
6.062866360051627
 21
7.035138184183129
 31
0.0
  0
LINE
  5
43C
330
40
100
AcDbEntity
  8
0
 62
     0
100
AcDbLine
 10
6.000866360051624
 20
7.061526531831445
 30
0.0
 11
6.062866360051627
 21
7.123526531831448
 31
0.0
  0
LINE
  5
43D
330
40
100
AcDbEntity
  8
0
 62
     0
100
AcDbLine
 10
6.172420824010881
 20
7.233080995790703
 30
0.0
 11
6.187866360051627
 21
7.248526531831449
 31
0.0
  0
LINE
  5
43E
330
40
100
AcDbEntity
  8
0
 62
     0
100
AcDbLine
 10
6.000866360051624
 20
7.149914879479763
 30
0.0
 11
6.062866360051627
 21
7.211914879479767
 31
0.0
  0
LINE
  5
43F
330
40
100
AcDbEntity
  8
0
 62
     0
100
AcDbLine
 10
6.126366360051624
 20
7.275414879479765
 30
0.0
 11
6.187866360051627
 21
7.336914879479767
 31
0.0
  0
LINE
  5
440
330
40
100
AcDbEntity
  8
0
 62
     0
100
AcDbLine
 10
6.000866360051624
 20
7.238303227128081
 30
0.0
 11
6.125644128714243
 21
7.363080995790701
 31
0.0
  0
LINE
  5
441
330
40
100
AcDbEntity
  8
0
 62
     0
100
AcDbLine
 10
5.850255781065928
 20
7.176080995790705
 30
0.0
 11
5.875866360051625
 21
7.201691574776401
 31
0.0
  0
LINE
  5
442
330
40
100
AcDbEntity
  8
0
 62
     0
100
AcDbLine
 10
5.975255781065924
 20
7.301080995790701
 30
0.0
 11
6.037255781065924
 21
7.363080995790701
 31
0.0
  0
LINE
  5
443
330
40
100
AcDbEntity
  8
0
 62
     0
100
AcDbLine
 10
5.813866360051628
 20
7.228079922424723
 30
0.0
 11
5.876607160465354
 21
7.290820722838449
 31
0.0
  0
LINE
  5
444
330
40
100
AcDbEntity
  8
0
 62
     0
100
AcDbLine
 10
5.886126633003883
 20
7.300340195376978
 30
0.0
 11
5.948867433417606
 21
7.363080995790701
 31
0.0
  0
LINE
  5
445
330
40
100
AcDbEntity
  8
0
 62
     0
100
AcDbLine
 10
5.813866360051632
 20
7.316468270073046
 30
0.0
 11
5.860479085769288
 21
7.363080995790701
 31
0.0
  0
LINE
  5
446
330
40
100
AcDbEntity
  8
0
 62
     0
100
AcDbLine
 10
6.000866360051624
 20
6.619584793589853
 30
0.0
 11
6.064844306165261
 21
6.68356273970349
 31
0.0
  0
LINE
  5
447
330
40
100
AcDbEntity
  8
0
 62
     0
100
AcDbLine
 10
6.000866360051624
 20
6.531196445941534
 30
0.0
 11
6.062866360051627
 21
6.593196445941537
 31
0.0
  0
LINE
  5
448
330
40
100
AcDbEntity
  8
0
 62
     0
100
AcDbLine
 10
6.083750909900792
 20
6.614080995790702
 30
0.0
 11
6.187866360051627
 21
6.718196445941537
 31
0.0
  0
LINE
  5
449
330
40
100
AcDbEntity
  8
0
 62
     0
100
AcDbLine
 10
5.813866360051632
 20
6.255808098293225
 30
0.0
 11
5.860639257549111
 21
6.302580995790703
 31
0.0
  0
LINE
  5
44A
330
40
100
AcDbEntity
  8
0
 62
     0
100
AcDbLine
 10
6.126366360051624
 20
6.568308098293217
 30
0.0
 11
6.187866360051627
 21
6.629808098293219
 31
0.0
  0
LINE
  5
44B
330
40
100
AcDbEntity
  8
0
 62
     0
100
AcDbLine
 10
6.000866360051624
 20
6.442808098293216
 30
0.0
 11
6.062866360051627
 21
6.504808098293219
 31
0.0
  0
LINE
  5
44C
330
40
100
AcDbEntity
  8
0
 62
     0
100
AcDbLine
 10
5.32625641134708
 20
5.679809801940354
 30
0.0
 11
5.388027605197432
 21
5.741580995790706
 31
0.0
  0
LINE
  5
44D
330
40
100
AcDbEntity
  8
0
 62
     0
100
AcDbLine
 10
6.000866360051624
 20
6.354419750644897
 30
0.0
 11
6.062866360051627
 21
6.416419750644901
 31
0.0
  0
LINE
  5
44E
330
40
100
AcDbEntity
  8
0
 62
     0
100
AcDbLine
 10
5.813866360051631
 20
6.167419750644905
 30
0.0
 11
5.875866360051634
 21
6.229419750644907
 31
0.0
  0
LINE
  5
44F
330
40
100
AcDbEntity
  8
0
 62
     0
100
AcDbLine
 10
5.414415952845753
 20
5.679580995790708
 30
0.0
 11
5.476415952845751
 21
5.741580995790706
 31
0.0
  0
LINE
  5
450
330
40
100
AcDbEntity
  8
0
 62
     0
100
AcDbLine
 10
6.000866360051624
 20
6.266031402996579
 30
0.0
 11
6.062866360051627
 21
6.328031402996582
 31
0.0
  0
LINE
  5
451
330
40
100
AcDbEntity
  8
0
 62
     0
100
AcDbLine
 10
5.81386636005163
 20
6.079031402996585
 30
0.0
 11
5.875866360051638
 21
6.141031402996593
 31
0.0
  0
LINE
  5
452
330
40
100
AcDbEntity
  8
0
 62
     0
100
AcDbLine
 10
5.50280430049407
 20
5.679580995790708
 30
0.0
 11
5.56480430049407
 21
5.741580995790706
 31
0.0
  0
LINE
  5
453
330
40
100
AcDbEntity
  8
0
 62
     0
100
AcDbLine
 10
6.000866360051624
 20
6.17764305534826
 30
0.0
 11
6.062866360051627
 21
6.239643055348263
 31
0.0
  0
LINE
  5
454
330
40
100
AcDbEntity
  8
0
 62
     0
100
AcDbLine
 10
5.813866360051628
 20
5.990643055348265
 30
0.0
 11
5.875866360051642
 21
6.052643055348279
 31
0.0
  0
LINE
  5
455
330
40
100
AcDbEntity
  8
0
 62
     0
100
AcDbLine
 10
5.591192648142389
 20
5.679580995790707
 30
0.0
 11
5.653192648142388
 21
5.741580995790706
 31
0.0
  0
LINE
  5
456
330
40
100
AcDbEntity
  8
0
 62
     0
100
AcDbLine
 10
6.000866360051624
 20
6.089254707699942
 30
0.0
 11
6.062866360051627
 21
6.151254707699945
 31
0.0
  0
LINE
  5
457
330
40
100
AcDbEntity
  8
0
 62
     0
100
AcDbLine
 10
5.813866360051626
 20
5.902254707699944
 30
0.0
 11
5.900692648142388
 21
5.989080995790708
 31
0.0
  0
LINE
  5
458
330
40
100
AcDbEntity
  8
0
 62
     0
100
AcDbLine
 10
5.679580995790707
 20
5.679580995790707
 30
0.0
 11
5.875866360051631
 21
5.875866360051631
 31
0.0
  0
LINE
  5
459
330
40
100
AcDbEntity
  8
0
 62
     0
100
AcDbLine
 10
6.000410290950151
 20
6.000410290950151
 30
0.0
 11
6.062866360051627
 21
6.062866360051627
 31
0.0
  0
LINE
  5
45A
330
40
100
AcDbEntity
  8
0
 62
     0
100
AcDbLine
 10
5.926580995790707
 20
5.926580995790707
 30
0.0
 11
5.989537064892176
 21
5.989537064892176
 31
0.0
  0
LINE
  5
45B
330
40
100
AcDbEntity
  8
0
 62
     0
100
AcDbLine
 10
5.767969343439025
 20
5.679580995790707
 30
0.0
 11
5.830067321633005
 21
5.741678973984686
 31
0.0
  0
LINE
  5
45C
330
40
100
AcDbEntity
  8
0
 62
     0
100
AcDbLine
 10
6.126366360051624
 20
6.037978012403306
 30
0.0
 11
6.145469343439024
 21
6.057080995790705
 31
0.0
  0
LINE
  5
45D
330
40
100
AcDbEntity
  8
0
 62
     0
100
AcDbLine
 10
6.014969343439025
 20
5.926580995790707
 30
0.0
 11
6.077474463736932
 21
5.989086116088614
 31
0.0
  0
LINE
  5
45E
330
40
100
AcDbEntity
  8
0
 62
     0
100
AcDbLine
 10
5.856357691087343
 20
5.679580995790706
 30
0.0
 11
5.918357691087343
 21
5.741580995790705
 31
0.0
  0
LINE
  5
45F
330
40
100
AcDbEntity
  8
0
 62
     0
100
AcDbLine
 10
6.103357691087344
 20
5.926580995790707
 30
0.0
 11
6.187866360051633
 21
6.011089664754996
 31
0.0
  0
LINE
  5
460
330
40
100
AcDbEntity
  8
0
 62
     0
100
AcDbLine
 10
5.944746038735661
 20
5.679580995790706
 30
0.0
 11
6.006746038735661
 21
5.741580995790705
 31
0.0
  0
LINE
  5
461
330
40
100
AcDbEntity
  8
0
 62
     0
100
AcDbLine
 10
6.033134386383979
 20
5.679580995790705
 30
0.0
 11
6.158134386383975
 21
5.804580995790701
 31
0.0
  0
LINE
  5
462
330
40
100
AcDbEntity
  8
0
 62
     0
100
AcDbLine
 10
6.121522734032297
 20
5.679580995790705
 30
0.0
 11
6.187866360051634
 21
5.745924621810042
 31
0.0
  0
ENDBLK
  5
463
330
40
100
AcDbEntity
  8
OBJ2
100
AcDbBlockEnd
  0
BLOCK
  5
464
330
41
100
AcDbEntity
  8
OBJ2
100
AcDbBlockBegin
  2
*X31
 70
     1
 10
0.0
 20
0.0
 30
0.0
  3
*X31
  1

  0
LINE
  5
465
330
41
100
AcDbEntity
  8
0
 62
     0
100
AcDbLine
 10
8.495827396348879
 20
6.618580051513575
 30
0.0
 11
8.431469864722838
 21
6.682937583139615
 31
0.0
  0
LINE
  5
466
330
41
100
AcDbEntity
  8
0
 62
     0
100
AcDbLine
 10
8.495827396348879
 20
6.530191703865256
 30
0.0
 11
8.433827396348874
 21
6.592191703865261
 31
0.0
  0
LINE
  5
467
330
41
100
AcDbEntity
  8
0
 62
     0
100
AcDbLine
 10
8.411938104423443
 20
6.614080995790692
 30
0.0
 11
8.308827396348874
 21
6.717191703865261
 31
0.0
  0
LINE
  5
468
330
41
100
AcDbEntity
  8
0
 62
     0
100
AcDbLine
 10
8.682827396348873
 20
6.254803356216943
 30
0.0
 11
8.635068944043291
 21
6.302561808522526
 31
0.0
  0
LINE
  5
469
330
41
100
AcDbEntity
  8
0
 62
     0
100
AcDbLine
 10
8.370327396348876
 20
6.567303356216941
 30
0.0
 11
8.308827396348872
 21
6.628803356216945
 31
0.0
  0
LINE
  5
46A
330
41
100
AcDbEntity
  8
0
 62
     0
100
AcDbLine
 10
8.495827396348879
 20
6.441803356216937
 30
0.0
 11
8.433827396348876
 21
6.503803356216942
 31
0.0
  0
LINE
  5
46B
330
41
100
AcDbEntity
  8
0
 62
     0
100
AcDbLine
 10
9.169560904112259
 20
5.67968150080524
 30
0.0
 11
9.107661409126807
 21
5.741580995790693
 31
0.0
  0
LINE
  5
46C
330
41
100
AcDbEntity
  8
0
 62
     0
100
AcDbLine
 10
8.495827396348881
 20
6.353415008568618
 30
0.0
 11
8.433827396348876
 21
6.415415008568624
 31
0.0
  0
LINE
  5
46D
330
41
100
AcDbEntity
  8
0
 62
     0
100
AcDbLine
 10
8.682827396348873
 20
6.166415008568624
 30
0.0
 11
8.620827396348873
 21
6.228415008568625
 31
0.0
  0
LINE
  5
46E
330
41
100
AcDbEntity
  8
0
 62
     0
100
AcDbLine
 10
9.081273061478489
 20
5.679580995790693
 30
0.0
 11
9.019273061478488
 21
5.741580995790693
 31
0.0
  0
LINE
  5
46F
330
41
100
AcDbEntity
  8
0
 62
     0
100
AcDbLine
 10
8.495827396348881
 20
6.265026660920299
 30
0.0
 11
8.433827396348876
 21
6.327026660920305
 31
0.0
  0
LINE
  5
470
330
41
100
AcDbEntity
  8
0
 62
     0
100
AcDbLine
 10
8.682827396348875
 20
6.078026660920305
 30
0.0
 11
8.620827396348868
 21
6.140026660920312
 31
0.0
  0
LINE
  5
471
330
41
100
AcDbEntity
  8
0
 62
     0
100
AcDbLine
 10
8.99288471383017
 20
5.679580995790693
 30
0.0
 11
8.93088471383017
 21
5.741580995790693
 31
0.0
  0
LINE
  5
472
330
41
100
AcDbEntity
  8
0
 62
     0
100
AcDbLine
 10
8.495827396348881
 20
6.17663831327198
 30
0.0
 11
8.433827396348876
 21
6.238638313271986
 31
0.0
  0
LINE
  5
473
330
41
100
AcDbEntity
  8
0
 62
     0
100
AcDbLine
 10
8.682827396348875
 20
5.989638313271986
 30
0.0
 11
8.620827396348865
 21
6.051638313271998
 31
0.0
  0
LINE
  5
474
330
41
100
AcDbEntity
  8
0
 62
     0
100
AcDbLine
 10
8.904496366181852
 20
5.679580995790693
 30
0.0
 11
8.842496366181851
 21
5.741580995790693
 31
0.0
  0
LINE
  5
475
330
41
100
AcDbEntity
  8
0
 62
     0
100
AcDbLine
 10
8.495827396348881
 20
6.088249965623661
 30
0.0
 11
8.433827396348878
 21
6.150249965623666
 31
0.0
  0
LINE
  5
476
330
41
100
AcDbEntity
  8
0
 62
     0
100
AcDbLine
 10
8.682827396348876
 20
5.901249965623667
 30
0.0
 11
8.594996366181852
 21
5.989080995790692
 31
0.0
  0
LINE
  5
477
330
41
100
AcDbEntity
  8
0
 62
     0
100
AcDbLine
 10
8.816108018533533
 20
5.679580995790693
 30
0.0
 11
8.620827396348875
 21
5.87486161797535
 31
0.0
  0
LINE
  5
478
330
41
100
AcDbEntity
  8
0
 62
     0
100
AcDbLine
 10
8.496728400244544
 20
5.998960614079681
 30
0.0
 11
8.433827396348878
 21
6.061861617975347
 31
0.0
  0
LINE
  5
479
330
41
100
AcDbEntity
  8
0
 62
     0
100
AcDbLine
 10
8.56910801853353
 20
5.926580995790694
 30
0.0
 11
8.505707014637875
 21
5.989981999686349
 31
0.0
  0
LINE
  5
47A
330
41
100
AcDbEntity
  8
0
 62
     0
100
AcDbLine
 10
8.727719670885216
 20
5.679580995790693
 30
0.0
 11
8.665692442543104
 21
5.741608224132803
 31
0.0
  0
LINE
  5
47B
330
41
100
AcDbEntity
  8
0
 62
     0
100
AcDbLine
 10
8.370327396348873
 20
6.036973270327033
 30
0.0
 11
8.350219670885213
 21
6.057080995790693
 31
0.0
  0
LINE
  5
47C
330
41
100
AcDbEntity
  8
0
 62
     0
100
AcDbLine
 10
8.480719670885211
 20
5.926580995790694
 30
0.0
 11
8.418219670885214
 21
5.989080995790692
 31
0.0
  0
LINE
  5
47D
330
41
100
AcDbEntity
  8
0
 62
     0
100
AcDbLine
 10
8.639331323236897
 20
5.679580995790693
 30
0.0
 11
8.577331323236895
 21
5.741580995790694
 31
0.0
  0
LINE
  5
47E
330
41
100
AcDbEntity
  8
0
 62
     0
100
AcDbLine
 10
8.392331323236893
 20
5.926580995790694
 30
0.0
 11
8.308827396348871
 21
6.010084922678717
 31
0.0
  0
LINE
  5
47F
330
41
100
AcDbEntity
  8
0
 62
     0
100
AcDbLine
 10
8.550942975588577
 20
5.679580995790693
 30
0.0
 11
8.488942975588576
 21
5.741580995790694
 31
0.0
  0
LINE
  5
480
330
41
100
AcDbEntity
  8
0
 62
     0
100
AcDbLine
 10
8.46255462794026
 20
5.679580995790693
 30
0.0
 11
8.368827396348876
 21
5.773308227382075
 31
0.0
  0
LINE
  5
481
330
41
100
AcDbEntity
  8
0
 62
     0
100
AcDbLine
 10
8.374166280291941
 20
5.679580995790693
 30
0.0
 11
8.31216628029194
 21
5.741580995790693
 31
0.0
  0
LINE
  5
482
330
41
100
AcDbEntity
  8
0
 62
     0
100
AcDbLine
 10
8.285777932643624
 20
5.679580995790693
 30
0.0
 11
8.223777932643621
 21
5.741580995790693
 31
0.0
  0
LINE
  5
483
330
41
100
AcDbEntity
  8
0
 62
     0
100
AcDbLine
 10
8.197389584995304
 20
5.679580995790693
 30
0.0
 11
8.135389584995301
 21
5.741580995790693
 31
0.0
  0
LINE
  5
484
330
41
100
AcDbEntity
  8
0
 62
     0
100
AcDbLine
 10
8.495827396348879
 20
6.706968399161894
 30
0.0
 11
8.433827396348871
 21
6.768968399161901
 31
0.0
  0
LINE
  5
485
330
41
100
AcDbEntity
  8
0
 62
     0
100
AcDbLine
 10
8.495827396348877
 20
6.795356746810212
 30
0.0
 11
8.433827396348872
 21
6.857356746810219
 31
0.0
  0
LINE
  5
486
330
41
100
AcDbEntity
  8
0
 62
     0
100
AcDbLine
 10
8.495827396348877
 20
6.883745094458531
 30
0.0
 11
8.433827396348872
 21
6.945745094458537
 31
0.0
  0
LINE
  5
487
330
41
100
AcDbEntity
  8
0
 62
     0
100
AcDbLine
 10
8.495827396348877
 20
6.972133442106851
 30
0.0
 11
8.433827396348872
 21
7.034133442106854
 31
0.0
  0
LINE
  5
488
330
41
100
AcDbEntity
  8
0
 62
     0
100
AcDbLine
 10
8.495827396348875
 20
7.06052178975517
 30
0.0
 11
8.433827396348874
 21
7.122521789755173
 31
0.0
  0
LINE
  5
489
330
41
100
AcDbEntity
  8
0
 62
     0
100
AcDbLine
 10
8.323260885419939
 20
7.233088300684107
 30
0.0
 11
8.308834701242286
 21
7.24751448486176
 31
0.0
  0
LINE
  5
48A
330
41
100
AcDbEntity
  8
0
 62
     0
100
AcDbLine
 10
8.495827396348875
 20
7.148910137403488
 30
0.0
 11
8.433827396348874
 21
7.210910137403491
 31
0.0
  0
LINE
  5
48B
330
41
100
AcDbEntity
  8
0
 62
     0
100
AcDbLine
 10
8.370327396348876
 20
7.274410137403488
 30
0.0
 11
8.308827396348874
 21
7.335910137403491
 31
0.0
  0
LINE
  5
48C
330
41
100
AcDbEntity
  8
0
 62
     0
100
AcDbLine
 10
8.495827396348875
 20
7.237298485051807
 30
0.0
 11
8.370044885609992
 21
7.36308099579069
 31
0.0
  0
LINE
  5
48D
330
41
100
AcDbEntity
  8
0
 62
     0
100
AcDbLine
 10
8.64043323325831
 20
7.181080995790692
 30
0.0
 11
8.620827396348873
 21
7.200686832700126
 31
0.0
  0
LINE
  5
48E
330
41
100
AcDbEntity
  8
0
 62
     0
100
AcDbLine
 10
8.520433233258312
 20
7.301080995790689
 30
0.0
 11
8.458433233258311
 21
7.36308099579069
 31
0.0
  0
LINE
  5
48F
330
41
100
AcDbEntity
  8
0
 62
     0
100
AcDbLine
 10
8.682827396348873
 20
7.227075180348446
 30
0.0
 11
8.620467781014976
 21
7.289434795682343
 31
0.0
  0
LINE
  5
490
330
41
100
AcDbEntity
  8
0
 62
     0
100
AcDbLine
 10
8.609181196240525
 20
7.300721380456795
 30
0.0
 11
8.546821580906629
 21
7.36308099579069
 31
0.0
  0
LINE
  5
491
330
41
100
AcDbEntity
  8
0
 62
     0
100
AcDbLine
 10
8.682827396348873
 20
7.315463527996764
 30
0.0
 11
8.635209928554948
 21
7.36308099579069
 31
0.0
  0
ENDBLK
  5
492
330
41
100
AcDbEntity
  8
OBJ2
100
AcDbBlockEnd
  0
BLOCK
  5
493
330
44
100
AcDbEntity
  8
DIM
100
AcDbBlockBegin
  2
EXTRU
 70
     0
 10
0.0
 20
0.0
 30
0.0
  3
EXTRU
  1

  0
TEXT
  5
494
330
44
100
AcDbEntity
  8
TEXT
100
AcDbText
 10
-2.078212968450161
 20
-0.0374049537953738
 30
0.0
 40
0.3
  1
TYPE 1
  7
ROMANS
 72
     1
 11
-1.313927254164447
 21
-0.0374049537953738
 31
0.0
100
AcDbText
  0
TEXT
  5
496
330
44
100
AcDbEntity
  8
TEXT
100
AcDbText
 10
-2.101070111307308
 20
-0.6788335252239435
 30
0.0
 40
0.3
  1
TYPE 3
  7
ROMANS
 72
     1
 11
-1.293927254164451
 21
-0.6788335252239435
 31
0.0
100
AcDbText
  0
TEXT
  5
497
330
44
100
AcDbEntity
  8
TEXT
100
AcDbText
 10
0.6332156029783978
 20
-0.0345478109382249
 30
0.0
 40
0.3
  1
00-4015
  7
ROMANS
 72
     1
 11
1.67607274583554
 21
-0.0345478109382249
 31
0.0
100
AcDbText
  0
TEXT
  5
498
330
44
100
AcDbEntity
  8
TEXT
100
AcDbText
 10
0.6332156029783978
 20
-0.6759763823667946
 30
0.0
 40
0.3
  1
00-4012
  7
ROMANS
 72
     1
 11
1.67607274583554
 21
-0.6759763823667946
 31
0.0
100
AcDbText
  0
LINE
  5
499
330
44
100
AcDbEntity
  8
TEXT
100
AcDbLine
 10
-2.623927254164456
 20
0.3825950462046279
 30
0.0
 11
3.366072745835545
 21
0.3825950462046279
 31
0.0
  0
LINE
  5
49A
330
44
100
AcDbEntity
  8
TEXT
100
AcDbLine
 10
-2.623927254164456
 20
-0.2174049537953735
 30
0.0
 11
3.366072745835545
 21
-0.217404953795377
 31
0.0
  0
LINE
  5
49B
330
44
100
AcDbEntity
  8
TEXT
100
AcDbLine
 10
-2.373927254164456
 20
-0.8174049537953749
 30
0.0
 11
3.116072745835552
 21
-0.8174049537953749
 31
0.0
  0
TEXT
  5
49C
330
44
100
AcDbEntity
  8
TEXT
100
AcDbText
 10
-2.125927254164452
 20
0.6685950462046329
 30
0.0
 40
0.4
  1
EXTRUSION NO.
  7
ROMANT
100
AcDbText
  0
LINE
  5
49D
330
44
100
AcDbEntity
  8
TEXT
100
AcDbLine
 10
-2.373927254164449
 20
1.332595046204627
 30
0.0
 11
3.116072745835538
 21
1.332595046204627
 31
0.0
  0
LINE
  5
49E
330
44
100
AcDbEntity
  8
TEXT
100
AcDbLine
 10
-2.623927254164449
 20
1.082595046204627
 30
0.0
 11
-2.623927254164456
 21
-0.567404953795375
 31
0.0
  0
LINE
  5
49F
330
44
100
AcDbEntity
  8
TEXT
100
AcDbLine
 10
0.1060727458355473
 20
-0.8174049537953749
 30
0.0
 11
0.1060727458355544
 21
0.3825950462046315
 31
0.0
  0
LINE
  5
4A0
330
44
100
AcDbEntity
  8
TEXT
100
AcDbLine
 10
3.366072745835538
 20
1.082595046204627
 30
0.0
 11
3.366072745835552
 21
-0.5674049537953785
 31
0.0
  0
ARC
  5
4A1
330
44
100
AcDbEntity
  8
TEXT
100
AcDbCircle
 10
-2.373927254164449
 20
1.082595046204627
 30
0.0
 40
0.25
100
AcDbArc
 50
90.0
 51
179.9999999999998
  0
ARC
  5
4A2
330
44
100
AcDbEntity
  8
TEXT
100
AcDbCircle
 10
-2.373927254164456
 20
-0.567404953795375
 30
0.0
 40
0.25
100
AcDbArc
 50
179.9999999999998
 51
269.9999999999999
  0
ARC
  5
4A3
330
44
100
AcDbEntity
  8
TEXT
100
AcDbCircle
 10
3.116072745835552
 20
-0.5674049537953785
 30
0.0
 40
0.25
100
AcDbArc
 50
270.0
 51
0.0000000000001527
  0
ARC
  5
4A4
330
44
100
AcDbEntity
  8
TEXT
100
AcDbCircle
 10
3.116072745835538
 20
1.082595046204627
 30
0.0
 40
0.25
100
AcDbArc
 50
0.0000000000003053
 51
90.0
  0
ENDBLK
  5
4A5
330
44
100
AcDbEntity
  8
DIM
100
AcDbBlockEnd
  0
BLOCK
  5
994
330
98A
100
AcDbEntity
  8
0
100
AcDbBlockBegin
  2
*D35
 70
     1
 10
0.0
 20
0.0
 30
0.0
  3
*D35
  1

  0
LINE
  5
9AB
330
98A
100
AcDbEntity
  8
DIM
 62
     0
370
    -2
100
AcDbLine
 10
3.927177855103607
 20
4.311191914260906
 30
0.0
 11
3.927177855103607
 21
4.658610918470195
 31
0.0
  0
LINE
  5
9AC
330
98A
100
AcDbEntity
  8
DIM
 62
     0
370
    -2
100
AcDbLine
 10
2.927177855103536
 20
4.311191914260906
 30
0.0
 11
2.927177855103536
 21
4.658610918470195
 31
0.0
  0
LINE
  5
9AD
330
98A
100
AcDbEntity
  8
DIM
 62
     0
370
    -2
100
AcDbLine
 10
3.747177855103607
 20
4.478610918470195
 30
0.0
 11
3.107177855103536
 21
4.478610918470195
 31
0.0
  0
MTEXT
  5
9AE
330
98A
100
AcDbEntity
  8
DIM
 62
     0
100
AcDbMText
 10
3.427177855103572
 20
4.853610918470195
 30
0.0
 40
0.15
 41
0.0
 71
     5
 72
     1
  1
\A1;1.00
 73
     1
 44
1.0
  0
SOLID
  5
9AF
330
98A
100
AcDbEntity
  8
DIM
 62
     0
100
AcDbTrace
 10
3.747177855103607
 20
4.508610918470195
 30
0.0
 11
3.747177855103607
 21
4.448610918470195
 31
0.0
 12
3.927177855103607
 22
4.478610918470195
 32
0.0
 13
3.927177855103607
 23
4.478610918470195
 33
0.0
  0
SOLID
  5
9B0
330
98A
100
AcDbEntity
  8
DIM
 62
     0
100
AcDbTrace
 10
3.107177855103536
 20
4.508610918470195
 30
0.0
 11
3.107177855103536
 21
4.448610918470195
 31
0.0
 12
2.927177855103536
 22
4.478610918470195
 32
0.0
 13
2.927177855103536
 23
4.478610918470195
 33
0.0
  0
POINT
  5
9B1
330
98A
100
AcDbEntity
  8
DEFPOINTS
 62
     0
100
AcDbPoint
 10
3.927177855103607
 20
4.186191914260906
 30
0.0
  0
POINT
  5
9B2
330
98A
100
AcDbEntity
  8
DEFPOINTS
 62
     0
100
AcDbPoint
 10
2.927177855103536
 20
4.186191914260906
 30
0.0
  0
POINT
  5
9B3
330
98A
100
AcDbEntity
  8
DEFPOINTS
 62
     0
100
AcDbPoint
 10
2.927177855103536
 20
4.478610918470195
 30
0.0
  0
ENDBLK
  5
995
330
98A
100
AcDbEntity
  8
0
100
AcDbBlockEnd
  0
BLOCK
  5
9A0
330
996
100
AcDbEntity
  8
0
100
AcDbBlockBegin
  2
*D36
 70
     1
 10
0.0
 20
0.0
 30
0.0
  3
*D36
  1

  0
LINE
  5
9A2
330
996
100
AcDbEntity
  8
DIM
 62
     0
370
    -2
100
AcDbLine
 10
6.363177855103614
 20
4.310691914260907
 30
0.0
 11
6.363177855103614
 21
4.658110918470196
 31
0.0
  0
LINE
  5
9A3
330
996
100
AcDbEntity
  8
DIM
 62
     0
370
    -2
100
AcDbLine
 10
5.363177855103543
 20
4.310691914260907
 30
0.0
 11
5.363177855103543
 21
4.658110918470196
 31
0.0
  0
LINE
  5
9A4
330
996
100
AcDbEntity
  8
DIM
 62
     0
370
    -2
100
AcDbLine
 10
6.183177855103615
 20
4.478110918470196
 30
0.0
 11
5.543177855103543
 21
4.478110918470196
 31
0.0
  0
MTEXT
  5
9A5
330
996
100
AcDbEntity
  8
DIM
 62
     0
100
AcDbMText
 10
5.863177855103579
 20
4.853110918470196
 30
0.0
 40
0.15
 41
0.0
 71
     5
 72
     1
  1
\A1;1.00
 73
     1
 44
1.0
  0
SOLID
  5
9A6
330
996
100
AcDbEntity
  8
DIM
 62
     0
100
AcDbTrace
 10
6.183177855103615
 20
4.508110918470197
 30
0.0
 11
6.183177855103615
 21
4.448110918470196
 31
0.0
 12
6.363177855103614
 22
4.478110918470196
 32
0.0
 13
6.363177855103614
 23
4.478110918470196
 33
0.0
  0
SOLID
  5
9A7
330
996
100
AcDbEntity
  8
DIM
 62
     0
100
AcDbTrace
 10
5.543177855103543
 20
4.508110918470197
 30
0.0
 11
5.543177855103543
 21
4.448110918470196
 31
0.0
 12
5.363177855103543
 22
4.478110918470196
 32
0.0
 13
5.363177855103543
 23
4.478110918470196
 33
0.0
  0
POINT
  5
9A8
330
996
100
AcDbEntity
  8
DEFPOINTS
 62
     0
100
AcDbPoint
 10
6.363177855103614
 20
4.185691914260907
 30
0.0
  0
POINT
  5
9A9
330
996
100
AcDbEntity
  8
DEFPOINTS
 62
     0
100
AcDbPoint
 10
5.363177855103543
 20
4.185691914260907
 30
0.0
  0
POINT
  5
9AA
330
996
100
AcDbEntity
  8
DEFPOINTS
 62
     0
100
AcDbPoint
 10
5.363177855103543
 20
4.478110918470196
 30
0.0
  0
ENDBLK
  5
9A1
330
996
100
AcDbEntity
  8
0
100
AcDbBlockEnd
  0
ENDSEC
  0
SECTION
  2
ENTITIES
  0
LWPOLYLINE
  5
4A6
330
1E
100
AcDbEntity
  8
OBJ
100
AcDbPolyline
 90
       16
 70
     1
 43
0.0
 10
4.605677855103571
 20
5.356691914260899
 42
-0.4142135623730951
 10
4.574677855103573
 20
5.3256919142609
 10
2.279677855103571
 20
5.3256919142609
 42
-0.4142135623730944
 10
2.248677855103572
 20
5.356691914260899
 10
2.248677855103572
 20
5.7296919142609
 42
-0.4142135623730957
 10
2.279677855103571
 20
5.760691914260899
 10
2.327427855103572
 20
5.760691914260899
 42
-0.4142135623730951
 10
2.358677855103572
 20
5.729441914260899
 10
2.358677855103572
 20
5.5131919142609
 42
0.4142135623730951
 10
2.421177855103572
 20
5.4506919142609
 10
4.433177855103572
 20
5.4506919142609
 42
0.4142135623730951
 10
4.495677855103572
 20
5.5131919142609
 10
4.495677855103572
 20
5.729441914260899
 42
-0.4142135623730951
 10
4.526927855103572
 20
5.760691914260899
 10
4.574677855103573
 20
5.760691914260899
 42
-0.4142135623730951
 10
4.605677855103571
 20
5.7296919142609
  0
LINE
  5
4B8
330
1E
100
AcDbEntity
  8
OBJ
100
AcDbLine
 10
4.418177855103571
 20
5.065691914261034
 30
0.0
 11
4.418177855103571
 21
5.3256919142609
 31
0.0
  0
LINE
  5
4B9
330
1E
100
AcDbEntity
  8
OBJ
100
AcDbLine
 10
4.418177855103571
 20
5.3256919142609
 30
0.0
 11
2.436177855103572
 21
5.3256919142609
 31
0.0
  0
LINE
  5
4BA
330
1E
100
AcDbEntity
  8
OBJ
100
AcDbLine
 10
4.418177855103571
 20
5.075691914260897
 30
0.0
 11
2.436177855103572
 21
5.075691914260897
 31
0.0
  0
LINE
  5
4BB
330
1E
100
AcDbEntity
  8
OBJ
100
AcDbLine
 10
2.436177855103572
 20
5.065691914261034
 30
0.0
 11
2.436177855103572
 21
5.075876252534357
 31
0.0
  0
LINE
  5
4BC
330
1E
100
AcDbEntity
  8
OBJ
100
AcDbLine
 10
2.255177855103539
 20
4.448691914260903
 30
0.0
 11
2.350177855103538
 21
4.448691914260903
 31
0.0
  0
LINE
  5
4BD
330
1E
100
AcDbEntity
  8
OBJ
100
AcDbLine
 10
2.240177855103539
 20
4.463691914260904
 30
0.0
 11
2.240177855103546
 21
4.933691914260901
 31
0.0
  0
LINE
  5
4BE
330
1E
100
AcDbEntity
  8
OBJ
100
AcDbLine
 10
2.365177855103539
 20
4.463691914260904
 30
0.0
 11
2.365177855103539
 21
4.933691914260901
 31
0.0
  0
LINE
  5
4BF
330
1E
100
AcDbEntity
  8
OBJ
100
AcDbLine
 10
2.255177855103546
 20
4.948691914260901
 30
0.0
 11
2.350177855103538
 21
4.948691914260901
 31
0.0
  0
ARC
  5
4C6
330
1E
100
AcDbEntity
  8
OBJ
100
AcDbCircle
 10
2.255177855103539
 20
4.463691914260904
 30
0.0
 40
0.015
100
AcDbArc
 50
180.0
 51
270.0
  0
ARC
  5
4C7
330
1E
100
AcDbEntity
  8
OBJ
100
AcDbCircle
 10
2.350177855103538
 20
4.463691914260904
 30
0.0
 40
0.015
100
AcDbArc
 50
270.0
 51
0.0
  0
ARC
  5
4C8
330
1E
100
AcDbEntity
  8
OBJ
100
AcDbCircle
 10
2.255177855103546
 20
4.933691914260901
 30
0.0
 40
0.015
100
AcDbArc
 50
90.0
 51
180.0
  0
ARC
  5
4C9
330
1E
100
AcDbEntity
  8
OBJ
100
AcDbCircle
 10
2.350177855103538
 20
4.933691914260901
 30
0.0
 40
0.015
100
AcDbArc
 50
0.0
 51
90.0
  0
ARC
  5
4CA
330
1E
100
AcDbEntity
  8
OBJ
100
AcDbCircle
 10
4.574677855103537
 20
5.034691914261031
 30
0.0
 40
0.0310000000000024
100
AcDbArc
 50
0.0
 51
90.0
  0
LINE
  5
4CB
330
1E
100
AcDbEntity
  8
OBJ
100
AcDbLine
 10
4.574677855103537
 20
5.065691914261034
 30
0.0
 11
2.279677855103535
 21
5.065691914261034
 31
0.0
  0
ARC
  5
4CC
330
1E
100
AcDbEntity
  8
OBJ
100
AcDbCircle
 10
2.279677855103543
 20
5.034691914261031
 30
0.0
 40
0.0310000000000006
100
AcDbArc
 50
90.00000000000655
 51
180.0000000000032
  0
LINE
  5
4CD
330
1E
100
AcDbEntity
  8
OBJ
100
AcDbLine
 10
2.248677855103537
 20
5.034691914261031
 30
0.0
 11
2.248677855103537
 21
4.947210420094201
 31
0.0
  0
ARC
  5
4CE
330
1E
100
AcDbEntity
  8
OBJ
100
AcDbCircle
 10
2.421177855103536
 20
4.878191914261034
 30
0.0
 40
0.0625
100
AcDbArc
 50
90.0
 51
153.6371669217922
  0
LINE
  5
4CF
330
1E
100
AcDbEntity
  8
OBJ
100
AcDbLine
 10
2.421177855103536
 20
4.940691914261034
 30
0.0
 11
4.433177855103537
 21
4.940691914261034
 31
0.0
  0
LINE
  5
4D0
330
1E
100
AcDbEntity
  8
OBJ
100
AcDbLine
 10
4.605677855103536
 20
5.034691914261031
 30
0.0
 11
4.605677855103536
 21
4.947210420095778
 31
0.0
  0
ARC
  5
4D1
330
1E
100
AcDbEntity
  8
OBJ
100
AcDbCircle
 10
4.504177855103534
 20
4.933691914260901
 30
0.0
 40
0.015
100
AcDbArc
 50
90.0
 51
180.0
  0
ARC
  5
4D2
330
1E
100
AcDbEntity
  8
OBJ
100
AcDbCircle
 10
4.599177855103533
 20
4.933691914260901
 30
0.0
 40
0.015
100
AcDbArc
 50
0.0
 51
90.0
  0
ARC
  5
4D3
330
1E
100
AcDbEntity
  8
OBJ
100
AcDbCircle
 10
4.504177855103534
 20
4.463691914260904
 30
0.0
 40
0.015
100
AcDbArc
 50
180.0
 51
270.0
  0
ARC
  5
4D4
330
1E
100
AcDbEntity
  8
OBJ
100
AcDbCircle
 10
4.599177855103533
 20
4.463691914260904
 30
0.0
 40
0.015
100
AcDbArc
 50
270.0
 51
0.0
  0
LINE
  5
4DB
330
1E
100
AcDbEntity
  8
OBJ
100
AcDbLine
 10
4.599177855103533
 20
4.948691914260901
 30
0.0
 11
4.504177855103534
 21
4.948691914260901
 31
0.0
  0
LINE
  5
4DC
330
1E
100
AcDbEntity
  8
OBJ
100
AcDbLine
 10
4.489177855103534
 20
4.463691914260904
 30
0.0
 11
4.489177855103534
 21
4.933691914260901
 31
0.0
  0
LINE
  5
4DD
330
1E
100
AcDbEntity
  8
OBJ
100
AcDbLine
 10
4.614177855103534
 20
4.463691914260904
 30
0.0
 11
4.614177855103534
 21
4.933691914260901
 31
0.0
  0
LINE
  5
4DE
330
1E
100
AcDbEntity
  8
OBJ
100
AcDbLine
 10
4.599177855103533
 20
4.448691914260903
 30
0.0
 11
4.504177855103534
 21
4.448691914260903
 31
0.0
  0
ARC
  5
4DF
330
1E
100
AcDbEntity
  8
OBJ
100
AcDbCircle
 10
4.433177855103537
 20
4.878191914261034
 30
0.0
 40
0.0625
100
AcDbArc
 50
26.36283307819753
 51
90.0
  0
LWPOLYLINE
  5
4E0
330
1E
100
AcDbEntity
  8
OBJ
100
AcDbPolyline
 90
       76
 70
     1
 43
0.0
 10
2.240177855103546
 20
4.463691914260904
 42
0.4142135623731013
 10
2.255177855103546
 20
4.448691914260903
 10
2.350177855103531
 20
4.448691914260907
 42
0.4142135623730721
 10
2.365177855103524
 20
4.463691914260904
 10
2.365177855103539
 20
4.747191914260902
 42
-0.4142135623730951
 10
2.380177855103539
 20
4.762191914260903
 10
2.412177855103543
 20
4.762191914260903
 42
-0.4142135623730951
 10
2.427177855103536
 20
4.747191914260902
 10
2.427177855103543
 20
4.325381761462994
 42
0.1982212594259306
 10
2.431543081950216
 20
4.314803406204381
 10
2.540153672668473
 20
4.205613559002296
 42
0.1996036581629073
 10
2.550788445821794
 20
4.201191914260904
 10
2.912177855103536
 20
4.201191914260904
 42
-0.4142135623730777
 10
2.927177855103536
 20
4.186191914260907
 10
2.927177855103536
 20
4.154191914260907
 42
-0.4142135623730951
 10
2.912177855103536
 20
4.139191914260907
 10
2.068177855103536
 20
4.139191914260903
 42
-0.4142135623730951
 10
2.053177855103536
 20
4.154191914260904
 10
2.053177855103536
 20
4.249191914260896
 42
-0.4142135623730951
 10
2.068177855103536
 20
4.264191914260896
 10
2.160177855103542
 20
4.264191914260914
 42
-0.4142135623731471
 10
2.175177855103543
 20
4.249191914260913
 10
2.175177855103543
 20
4.216191914260905
 42
0.4142135623730951
 10
2.190177855103543
 20
4.201191914260904
 10
2.408999640874704
 20
4.201191914260904
 42
0.6672173233139669
 10
2.423179338412467
 20
4.235296387939053
 10
2.369543081950219
 20
4.289218704435766
 42
-0.1982212594259213
 10
2.365177855103539
 20
4.299797059694379
 10
2.365177855103539
 20
4.371191914260906
 42
0.4142135623730951
 10
2.350177855103538
 20
4.386191914260907
 10
2.10317785510354
 20
4.386191914260907
 42
-0.4142135623731003
 10
2.053177855103536
 20
4.436191914260907
 10
2.053177855103536
 20
4.501691914260904
 42
-0.4142135623730951
 10
2.068177855103536
 20
4.516691914260904
 10
2.099677855103545
 20
4.516691914260904
 42
-0.4142135623730951
 10
2.114677855103545
 20
4.501691914260904
 10
2.114677855103545
 20
4.463691914260904
 42
0.4142135623730951
 10
2.129677855103546
 20
4.448691914260903
 10
2.163177855103542
 20
4.448691914260907
 42
0.4142135623730951
 10
2.178177855103543
 20
4.463691914260907
 10
2.178177855103543
 20
5.058791914260901
 42
0.4142135623730951
 10
2.163277855103538
 20
5.073691914260901
 10
2.129577855103542
 20
5.073691914260901
 42
0.4142135623730951
 10
2.114677855103545
 20
5.058791914260901
 10
2.114677855103545
 20
5.020591914260901
 42
-0.4142135623730951
 10
2.099777855103541
 20
5.0056919142609
 10
2.06807785510354
 20
5.0056919142609
 42
-0.4142135623731125
 10
2.053177855103543
 20
5.020591914260901
 10
2.053177855103543
 20
5.1887919142609
 42
-0.4142135623730951
 10
2.06807785510354
 20
5.2036919142609
 10
2.099777855103541
 20
5.2036919142609
 42
-0.4142135623730951
 10
2.114677855103545
 20
5.1887919142609
 10
2.114677855103545
 20
5.1505919142609
 42
0.4142135623730951
 10
2.129577855103542
 20
5.135691914260899
 10
2.163277855103538
 20
5.135691914260902
 42
0.4142135623730951
 10
2.178177855103543
 20
5.1505919142609
 10
2.178177855103543
 20
5.745791914260898
 42
0.4142135623730951
 10
2.163277855103538
 20
5.760691914260902
 10
2.129577855103542
 20
5.760691914260899
 42
0.4142135623730601
 10
2.114677855103545
 20
5.745791914260902
 10
2.114677855103545
 20
5.707591914260898
 42
-0.4142135623731125
 10
2.099777855103541
 20
5.692691914260901
 10
2.06807785510354
 20
5.692691914260901
 42
-0.4142135623731037
 10
2.053177855103543
 20
5.707591914260902
 10
2.053177855103543
 20
5.807791914260903
 42
-0.4142135623730951
 10
2.06807785510354
 20
5.8226919142609
 10
2.412277855103539
 20
5.8226919142609
 42
-0.4142135623730863
 10
2.427177855103536
 20
5.807791914260903
 10
2.427177855103543
 20
5.650591914260903
 42
-0.4142135623731125
 10
2.412277855103539
 20
5.635691914260906
 10
2.380077855103543
 20
5.635691914260902
 42
-0.4142135623730776
 10
2.365177855103546
 20
5.650591914260903
 10
2.365177855103539
 20
5.745791914260902
 42
0.4142135623730951
 10
2.350277855103541
 20
5.760691914260902
 10
2.255077855103536
 20
5.760691914260899
 42
0.4142135623730601
 10
2.240177855103546
 20
5.745791914260902
  0
LWPOLYLINE
  5
52E
330
1E
100
AcDbEntity
  8
OBJ
100
AcDbPolyline
 90
       76
 70
     1
 43
0.0
 10
7.050177855103529
 20
4.463691914260904
 42
-0.4142135623731013
 10
7.035177855103529
 20
4.448691914260903
 10
6.940177855103544
 20
4.448691914260907
 42
-0.4142135623730721
 10
6.925177855103551
 20
4.463691914260904
 10
6.925177855103537
 20
4.747191914260902
 42
0.4142135623730951
 10
6.910177855103536
 20
4.762191914260903
 10
6.878177855103532
 20
4.762191914260903
 42
0.4142135623730951
 10
6.863177855103539
 20
4.747191914260902
 10
6.863177855103532
 20
4.325381761462994
 42
-0.1982212594259306
 10
6.858812628256859
 20
4.314803406204381
 10
6.750202037538602
 20
4.205613559002296
 42
-0.1996036581629073
 10
6.739567264385281
 20
4.201191914260904
 10
6.378177855103539
 20
4.201191914260904
 42
0.4142135623730777
 10
6.363177855103539
 20
4.186191914260907
 10
6.363177855103539
 20
4.154191914260907
 42
0.4142135623730951
 10
6.378177855103539
 20
4.139191914260907
 10
7.222177855103541
 20
4.139191914260903
 42
0.4142135623730951
 10
7.237177855103541
 20
4.154191914260904
 10
7.237177855103541
 20
4.249191914260896
 42
0.4142135623730951
 10
7.222177855103541
 20
4.264191914260896
 10
7.130177855103535
 20
4.264191914260914
 42
0.4142135623731471
 10
7.115177855103534
 20
4.249191914260913
 10
7.115177855103534
 20
4.216191914260905
 42
-0.4142135623730951
 10
7.100177855103534
 20
4.201191914260904
 10
6.881356069332372
 20
4.201191914260904
 42
-0.6672173233139669
 10
6.867176371794609
 20
4.235296387939053
 10
6.920812628256856
 20
4.289218704435766
 42
0.1982212594259213
 10
6.925177855103537
 20
4.299797059694379
 10
6.925177855103537
 20
4.371191914260906
 42
-0.4142135623730951
 10
6.940177855103537
 20
4.386191914260907
 10
7.187177855103537
 20
4.386191914260907
 42
0.4142135623731003
 10
7.237177855103541
 20
4.436191914260907
 10
7.237177855103541
 20
4.501691914260904
 42
0.4142135623730951
 10
7.222177855103541
 20
4.516691914260904
 10
7.190677855103532
 20
4.516691914260904
 42
0.4142135623730951
 10
7.175677855103532
 20
4.501691914260904
 10
7.175677855103532
 20
4.463691914260904
 42
-0.4142135623730951
 10
7.160677855103531
 20
4.448691914260903
 10
7.127177855103535
 20
4.448691914260907
 42
-0.4142135623730951
 10
7.112177855103534
 20
4.463691914260907
 10
7.112177855103534
 20
5.058791914260901
 42
-0.4142135623730951
 10
7.127077855103538
 20
5.073691914260901
 10
7.160777855103535
 20
5.073691914260901
 42
-0.4142135623730951
 10
7.175677855103532
 20
5.058791914260901
 10
7.175677855103532
 20
5.020591914260901
 42
0.4142135623730951
 10
7.190577855103536
 20
5.0056919142609
 10
7.222277855103537
 20
5.0056919142609
 42
0.4142135623731125
 10
7.237177855103534
 20
5.020591914260901
 10
7.237177855103534
 20
5.1887919142609
 42
0.4142135623730951
 10
7.222277855103537
 20
5.2036919142609
 10
7.190577855103536
 20
5.2036919142609
 42
0.4142135623730951
 10
7.175677855103532
 20
5.1887919142609
 10
7.175677855103532
 20
5.1505919142609
 42
-0.4142135623730951
 10
7.160777855103535
 20
5.135691914260899
 10
7.127077855103538
 20
5.135691914260902
 42
-0.4142135623730951
 10
7.112177855103534
 20
5.1505919142609
 10
7.112177855103534
 20
5.745791914260898
 42
-0.4142135623730951
 10
7.127077855103538
 20
5.760691914260902
 10
7.160777855103535
 20
5.760691914260899
 42
-0.4142135623730601
 10
7.175677855103532
 20
5.745791914260902
 10
7.175677855103532
 20
5.707591914260898
 42
0.4142135623731125
 10
7.190577855103536
 20
5.692691914260901
 10
7.222277855103537
 20
5.692691914260901
 42
0.4142135623731037
 10
7.237177855103534
 20
5.707591914260902
 10
7.237177855103534
 20
5.807791914260903
 42
0.4142135623730951
 10
7.222277855103537
 20
5.8226919142609
 10
6.878077855103536
 20
5.8226919142609
 42
0.4142135623730863
 10
6.863177855103539
 20
5.807791914260903
 10
6.863177855103532
 20
5.650591914260903
 42
0.4142135623731125
 10
6.878077855103536
 20
5.635691914260906
 10
6.910277855103532
 20
5.635691914260902
 42
0.4142135623730776
 10
6.925177855103529
 20
5.650591914260903
 10
6.925177855103537
 20
5.745791914260902
 42
-0.4142135623730951
 10
6.940077855103534
 20
5.760691914260902
 10
7.035277855103539
 20
5.760691914260899
 42
-0.4142135623730601
 10
7.050177855103529
 20
5.745791914260902
  0
LINE
  5
593
330
1E
100
AcDbEntity
  8
OBJ
100
AcDbLine
 10
2.436177855103572
 20
5.065691914261034
 30
0.0
 11
2.436177855103572
 21
5.3256919142609
 31
0.0
  0
INSERT
  5
62F
330
1E
100
AcDbEntity
  8
OBJ
100
AcDbBlockReference
  2
4046
 10
4.634129311456793
 20
4.22164337065474
 30
0.0
  0
LWPOLYLINE
  5
630
330
1E
100
AcDbEntity
  8
OBJ
100
AcDbPolyline
 90
       16
 70
     1
 43
0.0
 10
7.041677855103567
 20
5.356691914260899
 42
-0.4142135623730951
 10
7.010677855103568
 20
5.3256919142609
 10
4.715677855103566
 20
5.3256919142609
 42
-0.4142135623730944
 10
4.684677855103568
 20
5.356691914260899
 10
4.684677855103568
 20
5.7296919142609
 42
-0.4142135623730957
 10
4.715677855103566
 20
5.760691914260899
 10
4.763427855103567
 20
5.760691914260899
 42
-0.4142135623730951
 10
4.794677855103567
 20
5.729441914260899
 10
4.794677855103567
 20
5.5131919142609
 42
0.4142135623730951
 10
4.857177855103567
 20
5.4506919142609
 10
6.869177855103568
 20
5.4506919142609
 42
0.4142135623730951
 10
6.931677855103568
 20
5.5131919142609
 10
6.931677855103568
 20
5.729441914260899
 42
-0.4142135623730951
 10
6.962927855103568
 20
5.760691914260899
 10
7.010677855103568
 20
5.760691914260899
 42
-0.4142135623730951
 10
7.041677855103567
 20
5.7296919142609
  0
LINE
  5
642
330
1E
100
AcDbEntity
  8
OBJ
100
AcDbLine
 10
4.872177855103569
 20
5.065691914261034
 30
0.0
 11
4.872177855103569
 21
5.3256919142609
 31
0.0
  0
ARC
  5
643
330
1E
100
AcDbEntity
  8
OBJ
100
AcDbCircle
 10
6.869177855103532
 20
4.878191914261034
 30
0.0
 40
0.0625
100
AcDbArc
 50
26.36283307819753
 51
90.0
  0
LINE
  5
644
330
1E
100
AcDbEntity
  8
OBJ
100
AcDbLine
 10
7.03517785510353
 20
4.448691914260903
 30
0.0
 11
6.940177855103531
 21
4.448691914260903
 31
0.0
  0
LINE
  5
645
330
1E
100
AcDbEntity
  8
OBJ
100
AcDbLine
 10
7.05017785510353
 20
4.463691914260904
 30
0.0
 11
7.05017785510353
 21
4.933691914260901
 31
0.0
  0
LINE
  5
646
330
1E
100
AcDbEntity
  8
OBJ
100
AcDbLine
 10
6.92517785510353
 20
4.463691914260904
 30
0.0
 11
6.92517785510353
 21
4.933691914260901
 31
0.0
  0
LINE
  5
647
330
1E
100
AcDbEntity
  8
OBJ
100
AcDbLine
 10
7.03517785510353
 20
4.948691914260901
 30
0.0
 11
6.940177855103531
 21
4.948691914260901
 31
0.0
  0
ARC
  5
64E
330
1E
100
AcDbEntity
  8
OBJ
100
AcDbCircle
 10
7.035177855103529
 20
4.463691914260904
 30
0.0
 40
0.015
100
AcDbArc
 50
270.0
 51
0.0
  0
ARC
  5
64F
330
1E
100
AcDbEntity
  8
OBJ
100
AcDbCircle
 10
6.94017785510353
 20
4.463691914260904
 30
0.0
 40
0.015
100
AcDbArc
 50
180.0
 51
270.0
  0
ARC
  5
650
330
1E
100
AcDbEntity
  8
OBJ
100
AcDbCircle
 10
7.035177855103529
 20
4.933691914260901
 30
0.0
 40
0.015
100
AcDbArc
 50
0.0
 51
90.0
  0
ARC
  5
651
330
1E
100
AcDbEntity
  8
OBJ
100
AcDbCircle
 10
6.94017785510353
 20
4.933691914260901
 30
0.0
 40
0.015
100
AcDbArc
 50
90.0
 51
180.0
  0
LINE
  5
652
330
1E
100
AcDbEntity
  8
OBJ
100
AcDbLine
 10
7.041677855103532
 20
5.034691914261031
 30
0.0
 11
7.041677855103532
 21
4.947210420095778
 31
0.0
  0
LINE
  5
653
330
1E
100
AcDbEntity
  8
OBJ
100
AcDbLine
 10
4.857177855103532
 20
4.940691914261034
 30
0.0
 11
6.869177855103533
 21
4.940691914261034
 31
0.0
  0
ARC
  5
654
330
1E
100
AcDbEntity
  8
OBJ
100
AcDbCircle
 10
4.857177855103532
 20
4.878191914261034
 30
0.0
 40
0.0625
100
AcDbArc
 50
90.0
 51
153.6371669217922
  0
LINE
  5
655
330
1E
100
AcDbEntity
  8
OBJ
100
AcDbLine
 10
4.684677855103533
 20
5.034691914261031
 30
0.0
 11
4.684677855103533
 21
4.947210420094201
 31
0.0
  0
ARC
  5
656
330
1E
100
AcDbEntity
  8
OBJ
100
AcDbCircle
 10
4.715677855103538
 20
5.034691914261031
 30
0.0
 40
0.0310000000000006
100
AcDbArc
 50
90.00000000000655
 51
180.0000000000032
  0
LINE
  5
657
330
1E
100
AcDbEntity
  8
OBJ
100
AcDbLine
 10
7.010677855103534
 20
5.065691914261034
 30
0.0
 11
4.715677855103532
 21
5.065691914261034
 31
0.0
  0
ARC
  5
658
330
1E
100
AcDbEntity
  8
OBJ
100
AcDbCircle
 10
7.010677855103533
 20
5.034691914261031
 30
0.0
 40
0.0310000000000024
100
AcDbArc
 50
0.0
 51
90.0
  0
ARC
  5
659
330
1E
100
AcDbEntity
  8
OBJ
100
AcDbCircle
 10
4.786177855103534
 20
4.933691914260901
 30
0.0
 40
0.015
100
AcDbArc
 50
0.0
 51
90.0
  0
ARC
  5
65A
330
1E
100
AcDbEntity
  8
OBJ
100
AcDbCircle
 10
4.691177855103542
 20
4.933691914260901
 30
0.0
 40
0.015
100
AcDbArc
 50
90.0
 51
180.0
  0
ARC
  5
65B
330
1E
100
AcDbEntity
  8
OBJ
100
AcDbCircle
 10
4.786177855103534
 20
4.463691914260904
 30
0.0
 40
0.015
100
AcDbArc
 50
270.0
 51
0.0
  0
ARC
  5
65C
330
1E
100
AcDbEntity
  8
OBJ
100
AcDbCircle
 10
4.691177855103535
 20
4.463691914260904
 30
0.0
 40
0.015
100
AcDbArc
 50
180.0
 51
270.0
  0
LINE
  5
663
330
1E
100
AcDbEntity
  8
OBJ
100
AcDbLine
 10
4.691177855103543
 20
4.948691914260901
 30
0.0
 11
4.786177855103534
 21
4.948691914260901
 31
0.0
  0
LINE
  5
664
330
1E
100
AcDbEntity
  8
OBJ
100
AcDbLine
 10
4.801177855103535
 20
4.463691914260904
 30
0.0
 11
4.801177855103535
 21
4.933691914260901
 31
0.0
  0
LINE
  5
665
330
1E
100
AcDbEntity
  8
OBJ
100
AcDbLine
 10
4.676177855103535
 20
4.463691914260904
 30
0.0
 11
4.676177855103542
 21
4.933691914260901
 31
0.0
  0
LINE
  5
666
330
1E
100
AcDbEntity
  8
OBJ
100
AcDbLine
 10
4.691177855103536
 20
4.448691914260903
 30
0.0
 11
4.786177855103534
 21
4.448691914260903
 31
0.0
  0
LINE
  5
667
330
1E
100
AcDbEntity
  8
OBJ
100
AcDbLine
 10
4.872177855103569
 20
5.065691914261034
 30
0.0
 11
4.872177855103569
 21
5.075876252534357
 31
0.0
  0
LINE
  5
668
330
1E
100
AcDbEntity
  8
OBJ
100
AcDbLine
 10
6.854177855103568
 20
5.075691914260897
 30
0.0
 11
4.872177855103569
 21
5.075691914260897
 31
0.0
  0
LINE
  5
669
330
1E
100
AcDbEntity
  8
OBJ
100
AcDbLine
 10
6.854177855103568
 20
5.3256919142609
 30
0.0
 11
4.872177855103569
 21
5.3256919142609
 31
0.0
  0
LINE
  5
66A
330
1E
100
AcDbEntity
  8
OBJ
100
AcDbLine
 10
6.854177855103568
 20
5.065691914261034
 30
0.0
 11
6.854177855103568
 21
5.3256919142609
 31
0.0
  0
TEXT
  5
9B4
330
1E
100
AcDbEntity
  8
0
100
AcDbText
 10
3.863922889321595
 20
3.540967446103624
 30
0.0
 40
0.15
  1
FL10-2CRA-11
  7
SIMPLEX
 72
     1
 11
4.678208603607309
 21
3.615967446103624
 31
0.0
100
AcDbText
 73
     2
  0
ENDSEC
  0
SECTION
  2
OBJECTS
  0
DICTIONARY
  5
C
330
0
100
AcDbDictionary
281
     1
  3
ACAD_GROUP
350
D
  3
ACAD_PLOTSTYLENAME
350
E
  3
ACAD_MLINESTYLE
350
16
  3
ACAD_PLOTSETTINGS
350
18
  3
ACAD_LAYOUT
350
19
  0
DICTIONARY
  5
D
102
{ACAD_REACTORS
330
C
102
}
330
C
100
AcDbDictionary
281
     1
  0
ACDBDICTIONARYWDFLT
  5
E
102
{ACAD_REACTORS
330
C
102
}
330
C
100
AcDbDictionary
281
     1
  3
Normal
350
F
100
AcDbDictionaryWithDefault
340
F
  0
DICTIONARY
  5
16
102
{ACAD_REACTORS
330
C
102
}
330
C
100
AcDbDictionary
281
     1
  3
Standard
350
17
  0
DICTIONARY
  5
18
102
{ACAD_REACTORS
330
C
102
}
330
C
100
AcDbDictionary
281
     1
  0
DICTIONARY
  5
19
102
{ACAD_REACTORS
330
C
102
}
330
C
100
AcDbDictionary
281
     1
  3
Layout1
350
1D
  3
Model
350
21
  0
ACDBPLACEHOLDER
  5
F
102
{ACAD_REACTORS
330
E
102
}
330
E
  0
MLINESTYLE
  5
17
102
{ACAD_REACTORS
330
16
102
}
330
16
100
AcDbMlineStyle
  2
STANDARD
 70
     0
  3

 62
   256
 51
90.0
 52
90.0
 71
     2
 49
0.5
 62
   256
  6
BYLAYER
 49
-0.5
 62
   256
  6
BYLAYER
  0
LAYOUT
  5
1D
102
{ACAD_REACTORS
330
19
102
}
330
19
100
AcDbPlotSettings
  1

  2
\\tts1\TTSPRT05
  4

  6

 40
0.0
 41
0.0
 42
0.0
 43
0.0
 44
0.0
 45
0.0
 46
0.0
 47
0.0
 48
0.0
 49
0.0
140
0.0
141
0.0
142
1.0
143
1.0
 70
   688
 72
     0
 73
     0
 74
     5
  7

 75
    16
147
1.0
148
0.0
149
0.0
100
AcDbLayout
  1
Layout1
 70
     0
 71
     1
 10
0.0
 20
0.0
 11
12.0
 21
9.0
 12
0.0
 22
0.0
 32
0.0
 14
1.000000000000000E+20
 24
1.000000000000000E+20
 34
1.000000000000000E+20
 15
-1.000000000000000E+20
 25
-1.000000000000000E+20
 35
-1.000000000000000E+20
146
0.0
 13
0.0
 23
0.0
 33
0.0
 16
1.0
 26
0.0
 36
0.0
 17
0.0
 27
1.0
 37
0.0
 76
     0
330
1A
  0
LAYOUT
  5
21
102
{ACAD_REACTORS
330
19
102
}
330
19
100
AcDbPlotSettings
  1

  2
\\tts1\TTSPRT05
  4

  6

 40
0.0
 41
0.0
 42
0.0
 43
0.0
 44
0.0
 45
0.0
 46
0.0
 47
0.0
 48
0.0
 49
0.0
140
0.0
141
0.0
142
1.0
143
1.0
 70
  1712
 72
     0
 73
     0
 74
     0
  7

 75
     0
147
1.0
148
0.0
149
0.0
100
AcDbLayout
  1
Model
 70
     1
 71
     0
 10
0.0
 20
0.0
 11
12.0
 21
9.0
 12
0.0
 22
0.0
 32
0.0
 14
0.0
 24
0.0
 34
0.0
 15
0.0
 25
0.0
 35
0.0
146
0.0
 13
0.0
 23
0.0
 33
0.0
 16
1.0
 26
0.0
 36
0.0
 17
0.0
 27
1.0
 37
0.0
 76
     0
330
1E
  0
ENDSEC
  0
EOF
